999
dxflib 2.0.4.8
  0
SECTION
  2
HEADER
  9
$ACADVER
  1
AC1015
  9
$HANDSEED
  5
FFFF
  9
$USERR4
 40
0.0
  9
$DIMTDEC
 70
2
  9
$DIMTAD
 70
1
  9
$CMLSTYLE
  2
Standard
  9
$VISRETAIN
 70
1
  9
$TILEMODE
 70
1
  9
$SHADEDIF
 70
70
  9
$USERR5
 40
0.0
  9
$UCSYDIR
 10
0.0
 20
1.0
 30
0.0
  9
$CHAMFERA
 40
0.0
  9
$MENU
  1
acad
  9
$DIMALTZ
 70
0
  9
$CLAYER
  8
BLOCS
  9
$OLESTARTUP
290
0
  9
$UCSXDIR
 10
1.0
 20
0.0
 30
0.0
  9
$CHAMFERB
 40
0.0
  9
$DIMADEC
 70
0
  9
$DIMUPT
 70
0
  9
$DIMASZ
 40
1.25
  9
$TRACEWID
 40
1.0
  9
$REGENMODE
 70
1
  9
$ORTHOMODE
 70
0
  9
$EXTMIN
 10
0.0
 20
0.0
 30
0.0
  9
$ENDCAPS
280
0
  9
$MEASUREMENT
 70
0
  9
$CMLJUST
 70
0
  9
$PUCSYDIR
 10
0.0
 20
1.0
 30
0.0
  9
$ANGBASE
 50
0.0
  9
$USRTIMER
 70
1
  9
$CHAMFERC
 40
0.0
  9
$SKETCHINC
 40
1.0
  9
$DIMGAP
 40
0.09
  9
$DIMTFAC
 40
1.0
  9
$DIMSAH
 70
0
  9
$DIMALT
 70
0
  9
$DIMSHO
 70
0
  9
$VERSIONGUID
  2
{BF567DFB-49AA-48CD-9D33-E624392D7E09}
  9
$LWDISPLAY
290
0
  9
$PUCSXDIR
 10
1.0
 20
0.0
 30
0.0
  9
$SURFTYPE
 70
6
  9
$SPLFRAME
 70
0
  9
$CHAMFERD
 40
0.0
  9
$DIMALTRND
 40
0.0
  9
$DIMALTTD
 70
2
  9
$DIMTSZ
 40
0.0
  9
$LIMMIN
 10
0.0
 20
0.0
  9
$CELWEIGHT
370
-1
  9
$SURFTAB1
 70
6
  9
$SPLINESEGS
 70
8
  9
$AUPREC
 70
0
  9
$LUNITS
 70
2
  9
$DWGCODEPAGE
  3
ANSI_1252
  9
$PSTYLEMODE
290
1
  9
$UNITMODE
 70
0
  9
$USERI1
 70
0
  9
$UCSORTHOVIEW
 70
0
  9
$SURFTAB2
 70
6
  9
$TDUUPDATE
 40
2454263.7390568871051073
  9
$TDUCREATE
 40
2451877.0029774298891425
  9
$SKPOLY
 70
0
  9
$ELEVATION
 40
0.0
  9
$DIMDSEP
 70
46
  9
$DIMCEN
 40
1.5
  9
$DIMRND
 40
0.0
  9
$INSBASE
 10
19.2230769230769205
 20
12.6858664036219206
 30
0.0
  9
$INSUNITS
 70
0
  9
$USERI2
 70
0
  9
$UCSORGRIGHT
 10
0.0
 20
0.0
 30
0.0
  9
$UCSORG
 10
0.0
 20
0.0
 30
0.0
  9
$PELEVATION
 40
0.0
  9
$DIMEXO
 40
0.5
  9
$TEXTSIZE
 40
0.15
  9
$FILLMODE
 70
1
  9
$EXTMAX
 10
18.5
 20
28.6999999999999993
 30
0.0
  9
$JOINSTYLE
280
0
  9
$USERI3
 70
0
  9
$PUCSORGBOTTOM
 10
0.0
 20
0.0
 30
0.0
  9
$SURFU
 70
6
  9
$ANGDIR
 70
0
  9
$TDUSRTIMER
 40
0.000270544
  9
$DIMLWD
 70
-2
  9
$DIMTZIN
 70
0
  9
$DIMTOLJ
 70
1
  9
$DIMZIN
 70
0
  9
$DIMDLE
 40
0.0
  9
$DIMSCALE
 40
1.0
  9
$WORLDVIEW
 70
1
  9
$USERI4
 70
0
  9
$SURFV
 70
6
  9
$DIMLWE
 70
-2
  9
$DIMLUNIT
 70
2
  9
$DIMATFIT
 70
3
  9
$DIMALTTZ
 70
0
  9
$DIMJUST
 70
0
  9
$QTEXTMODE
 70
0
  9
$LIMMAX
 10
18.5
 20
28.6999999999999993
  9
$ACADMAINTVER
 70
20
  9
$GRIDMODE
 70
0
  9
$EXTNAMES
290
1
  9
$PROXYGRAPHICS
 70
1
  9
$USERI5
 70
0
  9
$UCSORGTOP
 10
0.0
 20
0.0
 30
0.0
  9
$PDMODE
 70
34
  9
$LIMCHECK
 70
0
  9
$THICKNESS
 40
0.0
  9
$DIMAZIN
 70
0
  9
$DIMSE1
 70
0
  9
$DIMLIM
 70
0
  9
$DIMTXT
 40
1.25
  9
$ATTMODE
 70
1
  9
$XEDIT
290
1
  9
$PEXTMAX
 10
-100000000000000000000.0
 20
-100000000000000000000.0
 30
-100000000000000000000.0
  9
$PEXTMIN
 10
100000000000000000000.0
 20
100000000000000000000.0
 30
100000000000000000000.0
  9
$PUCSORG
 10
0.0
 20
0.0
 30
0.0
  9
$SPLINETYPE
 70
6
  9
$TDINDWG
 40
0.000270544
  9
$LUPREC
 70
2
  9
$DIMSOXD
 70
0
  9
$DIMLFAC
 40
1.0
  9
$DIMSE2
 70
0
  9
$DIMTOH
 70
0
  9
$CELTYPE
  6
ByLayer
  9
$PSVPSCALE
 40
0.0
  9
$FINGERPRINTGUID
  2
{D79D0F3F-9E12-4756-8F1A-0036019FC92A}
  9
$PLIMCHECK
 70
0
  9
$PUCSORGRIGHT
 10
0.0
 20
0.0
 30
0.0
  9
$PLINEWID
 40
0.0
  9
$DIMFRAC
 70
0
  9
$DIMSTYLE
  2
STANDARD
  9
$DIMTVP
 40
0.0
  9
$DIMASO
 70
1
  9
$DIMTM
 40
0.0
  9
$DIMDLI
 40
7.0
  9
$DISPSILH
 70
0
  9
$CECOLOR
 62
256
  9
$TREEDEPTH
 70
3020
  9
$PLIMMAX
 10
12.0
 20
9.0
  9
$PLIMMIN
 10
0.0
 20
0.0
  9
$MAXACTVP
 70
48
  9
$UCSORGBACK
 10
0.0
 20
0.0
 30
0.0
  9
$UCSORGLEFT
 10
0.0
 20
0.0
 30
0.0
  9
$TDUPDATE
 40
2454263.7807235531508923
  9
$FILLETRAD
 40
0.0
  9
$DIMALTU
 70
2
  9
$DIMDEC
 70
2
  9
$DIMCLRT
 70
0
  9
$DIMALTD
 70
2
  9
$DIMTIH
 70
0
  9
$LTSCALE
 40
0.5
  9
$CEPSNTYPE
380
0
  9
$CMLSCALE
 40
1.0
  9
$PINSBASE
 10
0.0
 20
0.0
 30
0.0
  9
$USERR1
 40
0.0
  9
$PUCSORTHOVIEW
 70
0
  9
$PDSIZE
 40
-1.0
  9
$DIMTXSTY
  7
STANDARD
  9
$DIMCLRD
 70
0
  9
$DIMEXE
 40
0.7
  9
$CELTSCALE
 40
1.0
  9
$PSLTSCALE
 70
0
  9
$PLINEGEN
 70
0
  9
$SHADEDGE
 70
3
  9
$USERR2
 40
0.0
  9
$PUCSORGTOP
 10
0.0
 20
0.0
 30
0.0
  9
$UCSORGFRONT
 10
0.0
 20
0.0
 30
0.0
  9
$TDCREATE
 40
2451877.04464409686625
  9
$DIMTMOVE
 70
2
  9
$DIMAUNIT
 70
0
  9
$DIMSD1
 70
0
  9
$DIMCLRE
 70
0
  9
$DIMTOFL
 70
0
  9
$DIMALTF
 40
25.3999999999999986
  9
$DIMTOL
 70
0
  9
$DIMTP
 40
0.0
  9
$TEXTSTYLE
  7
STANDARD
  9
$USERR3
 40
0.0
  9
$PUCSORGBACK
 10
0.0
 20
0.0
 30
0.0
  9
$PUCSORGFRONT
 10
0.0
 20
0.0
 30
0.0
  9
$PUCSORGLEFT
 10
0.0
 20
0.0
 30
0.0
  9
$UCSORGBOTTOM
 10
0.0
 20
0.0
 30
0.0
  9
$AUNITS
 70
0
  9
$DIMSD2
 70
0
  9
$DIMTIX
 70
1
  9
$MIRRTEXT
 70
1
  0
ENDSEC
  0
SECTION
  2
TABLES
  0
TABLE
  2
VPORT
  5
8
100
AcDbSymbolTable
 70
1
  0
VPORT
  5
30
100
AcDbSymbolTableRecord
100
AcDbViewportTableRecord
  2
*Active
 70
0
 10
0.0
 20
0.0
 11
1.0
 21
1.0
 12
286.3055555555554861
 22
148.5
 13
0.0
 23
0.0
 14
10.0
 24
10.0
 15
10.0
 25
10.0
 16
0.0
 26
0.0
 36
1.0
 17
0.0
 27
0.0
 37
0.0
 40
297.0
 41
1.92798353909465
 42
50.0
 43
0.0
 44
0.0
 50
0.0
 51
0.0
 71
0
 72
100
 73
1
 74
3
 75
1
 76
1
 77
0
 78
0
281
0
 65
1
110
0.0
120
0.0
130
0.0
111
1.0
121
0.0
131
0.0
112
0.0
122
1.0
132
0.0
 79
0
146
0.0
  0
ENDTAB
  0
TABLE
  2
LTYPE
  5
5
100
AcDbSymbolTable
 70
21
  0
LTYPE
  5
14
100
AcDbSymbolTableRecord
100
AcDbLinetypeTableRecord
  2
ByBlock
 70
0
  3

 72
65
 73
0
 40
0.0
  0
LTYPE
  5
15
100
AcDbSymbolTableRecord
100
AcDbLinetypeTableRecord
  2
ByLayer
 70
0
  3

 72
65
 73
0
 40
0.0
  0
LTYPE
  5
16
100
AcDbSymbolTableRecord
100
AcDbLinetypeTableRecord
  2
CONTINUOUS
 70
0
  3
Solid line
 72
65
 73
0
 40
0.0
  0
LTYPE
  5
31
100
AcDbSymbolTableRecord
100
AcDbLinetypeTableRecord
  2
DOT
 70
0
  3
Dot . . . . . . . . . . . . . . . . . . . . . .
 72
65
 73
2
 40
6.3499999999999996
 49
0.0
 74
0
 49
-6.3499999999999996
 74
0
  0
LTYPE
  5
32
100
AcDbSymbolTableRecord
100
AcDbLinetypeTableRecord
  2
DOT2
 70
0
  3
Dot (.5x) .....................................
 72
65
 73
2
 40
3.1749999999999998
 49
0.0
 74
0
 49
-3.1749999999999998
 74
0
  0
LTYPE
  5
33
100
AcDbSymbolTableRecord
100
AcDbLinetypeTableRecord
  2
DOTX2
 70
0
  3
Dot (2x) .  .  .  .  .  .  .  .  .  .  .  .  .
 72
65
 73
2
 40
12.6999999999999993
 49
0.0
 74
0
 49
-12.6999999999999993
 74
0
  0
LTYPE
  5
34
100
AcDbSymbolTableRecord
100
AcDbLinetypeTableRecord
  2
DASHED
 70
0
  3
Dashed __ __ __ __ __ __ __ __ __ __ __ __ __ _
 72
65
 73
2
 40
19.0500000000000007
 49
12.6999999999999993
 74
0
 49
-6.3499999999999996
 74
0
  0
LTYPE
  5
35
100
AcDbSymbolTableRecord
100
AcDbLinetypeTableRecord
  2
DASHED2
 70
0
  3
Dashed (.5x) _ _ _ _ _ _ _ _ _ _ _ _ _ _ _ _ _
 72
65
 73
2
 40
9.5250000000000004
 49
6.3499999999999996
 74
0
 49
-3.1749999999999998
 74
0
  0
LTYPE
  5
36
100
AcDbSymbolTableRecord
100
AcDbLinetypeTableRecord
  2
DASHEDX2
 70
0
  3
Dashed (2x) ____  ____  ____  ____  ____  ___
 72
65
 73
2
 40
38.1000000000000014
 49
25.3999999999999986
 74
0
 49
-12.6999999999999993
 74
0
  0
LTYPE
  5
37
100
AcDbSymbolTableRecord
100
AcDbLinetypeTableRecord
  2
DASHDOT
 70
0
  3
Dash dot __ . __ . __ . __ . __ . __ . __ . __
 72
65
 73
4
 40
25.3999999999999986
 49
12.6999999999999993
 74
0
 49
-6.3499999999999996
 74
0
 49
0.0
 74
0
 49
-6.3499999999999996
 74
0
  0
LTYPE
  5
38
100
AcDbSymbolTableRecord
100
AcDbLinetypeTableRecord
  2
DASHDOT2
 70
0
  3
Dash dot (.5x) _._._._._._._._._._._._._._._.
 72
65
 73
4
 40
12.6999999999999993
 49
6.3499999999999996
 74
0
 49
-3.1749999999999998
 74
0
 49
0.0
 74
0
 49
-3.1749999999999998
 74
0
  0
LTYPE
  5
39
100
AcDbSymbolTableRecord
100
AcDbLinetypeTableRecord
  2
DASHDOTX2
 70
0
  3
Dash dot (2x) ____  .  ____  .  ____  .  ___
 72
65
 73
4
 40
50.7999999999999972
 49
25.3999999999999986
 74
0
 49
-12.6999999999999993
 74
0
 49
0.0
 74
0
 49
-12.6999999999999993
 74
0
  0
LTYPE
  5
3A
100
AcDbSymbolTableRecord
100
AcDbLinetypeTableRecord
  2
DIVIDE
 70
0
  3
Divide ____ . . ____ . . ____ . . ____ . . ____
 72
65
 73
6
 40
31.75
 49
12.6999999999999993
 74
0
 49
-6.3499999999999996
 74
0
 49
0.0
 74
0
 49
-6.3499999999999996
 74
0
 49
0.0
 74
0
 49
-6.3499999999999996
 74
0
  0
LTYPE
  5
3B
100
AcDbSymbolTableRecord
100
AcDbLinetypeTableRecord
  2
DIVIDE2
 70
0
  3
Divide (.5x) __..__..__..__..__..__..__..__.._
 72
65
 73
6
 40
15.875
 49
6.3499999999999996
 74
0
 49
-3.1749999999999998
 74
0
 49
0.0
 74
0
 49
-3.1749999999999998
 74
0
 49
0.0
 74
0
 49
-3.1749999999999998
 74
0
  0
LTYPE
  5
3C
100
AcDbSymbolTableRecord
100
AcDbLinetypeTableRecord
  2
DIVIDEX2
 70
0
  3
Divide (2x) ________  .  .  ________  .  .  _
 72
65
 73
6
 40
63.5
 49
25.3999999999999986
 74
0
 49
-12.6999999999999993
 74
0
 49
0.0
 74
0
 49
-12.6999999999999993
 74
0
 49
0.0
 74
0
 49
-12.6999999999999993
 74
0
  0
LTYPE
  5
3D
100
AcDbSymbolTableRecord
100
AcDbLinetypeTableRecord
  2
CENTER
 70
0
  3
Center ____ _ ____ _ ____ _ ____ _ ____ _ ____
 72
65
 73
4
 40
50.7999999999999972
 49
31.75
 74
0
 49
-6.3499999999999996
 74
0
 49
6.3499999999999996
 74
0
 49
-6.3499999999999996
 74
0
  0
LTYPE
  5
3E
100
AcDbSymbolTableRecord
100
AcDbLinetypeTableRecord
  2
CENTER2
 70
0
  3
Center (.5x) ___ _ ___ _ ___ _ ___ _ ___ _ ___
 72
65
 73
4
 40
28.5749999999999993
 49
19.0500000000000007
 74
0
 49
-3.1749999999999998
 74
0
 49
3.1749999999999998
 74
0
 49
-3.1749999999999998
 74
0
  0
LTYPE
  5
3F
100
AcDbSymbolTableRecord
100
AcDbLinetypeTableRecord
  2
CENTERX2
 70
0
  3
Center (2x) ________  __  ________  __  _____
 72
65
 73
4
 40
101.5999999999999943
 49
63.5
 74
0
 49
-12.6999999999999993
 74
0
 49
12.6999999999999993
 74
0
 49
-12.6999999999999993
 74
0
  0
LTYPE
  5
40
100
AcDbSymbolTableRecord
100
AcDbLinetypeTableRecord
  2
BORDER
 70
0
  3
Border __ __ . __ __ . __ __ . __ __ . __ __ .
 72
65
 73
6
 40
44.4500000000000028
 49
12.6999999999999993
 74
0
 49
-6.3499999999999996
 74
0
 49
12.6999999999999993
 74
0
 49
-6.3499999999999996
 74
0
 49
0.0
 74
0
 49
-6.3499999999999996
 74
0
  0
LTYPE
  5
41
100
AcDbSymbolTableRecord
100
AcDbLinetypeTableRecord
  2
BORDER2
 70
0
  3
Border (.5x) __.__.__.__.__.__.__.__.__.__.__.
 72
65
 73
6
 40
22.2250000000000014
 49
6.3499999999999996
 74
0
 49
-3.1749999999999998
 74
0
 49
6.3499999999999996
 74
0
 49
-3.1749999999999998
 74
0
 49
0.0
 74
0
 49
-3.1749999999999998
 74
0
  0
LTYPE
  5
42
100
AcDbSymbolTableRecord
100
AcDbLinetypeTableRecord
  2
BORDERX2
 70
0
  3
Border (2x) ____  ____  .  ____  ____  .  ___
 72
65
 73
6
 40
88.9000000000000057
 49
25.3999999999999986
 74
0
 49
-12.6999999999999993
 74
0
 49
25.3999999999999986
 74
0
 49
-12.6999999999999993
 74
0
 49
0.0
 74
0
 49
-12.6999999999999993
 74
0
  0
ENDTAB
  0
TABLE
  2
LAYER
  5
2
100
AcDbSymbolTable
 70
5
  0
LAYER
  5
10
100
AcDbSymbolTableRecord
100
AcDbLayerTableRecord
  2
0
 70
0
 62
7
  6
CONTINUOUS
370
-3
390
F
  0
LAYER
  5
43
100
AcDbSymbolTableRecord
100
AcDbLayerTableRecord
  2
PARETS
 70
0
 62
1
  6
CONTINUOUS
370
-3
390
F
  0
LAYER
  5
44
100
AcDbSymbolTableRecord
100
AcDbLayerTableRecord
  2
FINESTRA
 70
0
 62
2
  6
CONTINUOUS
370
-3
390
F
  0
LAYER
  5
45
100
AcDbSymbolTableRecord
100
AcDbLayerTableRecord
  2
TEXT
 70
0
 62
4
  6
CONTINUOUS
370
-3
390
F
  0
LAYER
  5
46
100
AcDbSymbolTableRecord
100
AcDbLayerTableRecord
  2
BLOCS
 70
0
 62
6
  6
CONTINUOUS
370
-3
390
F
  0
ENDTAB
  0
TABLE
  2
STYLE
  5
3
100
AcDbSymbolTable
 70
1
  0
STYLE
  5
11
100
AcDbSymbolTableRecord
100
AcDbTextStyleTableRecord
  2
Standard
 70
0
 40
0.0
 41
0.75
 50
0.0
 71
0
 42
2.5
  3
txt
  4

  0
ENDTAB
  0
TABLE
  2
VIEW
  5
6
100
AcDbSymbolTable
 70
0
  0
ENDTAB
  0
TABLE
  2
UCS
  5
7
100
AcDbSymbolTable
 70
0
  0
ENDTAB
  0
TABLE
  2
APPID
  5
9
100
AcDbSymbolTable
 70
1
  0
APPID
  5
12
100
AcDbSymbolTableRecord
100
AcDbRegAppTableRecord
  2
ACAD
 70
0
  0
ENDTAB
  0
TABLE
  2
DIMSTYLE
  5
A
100
AcDbSymbolTable
 70
1
100
AcDbDimStyleTable
 71
0
  0
DIMSTYLE
105
27
100
AcDbSymbolTableRecord
100
AcDbDimStyleTableRecord
  2
Standard
 41
1.25
 42
0.5
 43
3.75
 44
0.7
 70
0
 73
0
 74
0
 77
1
 78
8
140
1.25
141
2.5
143
0.03937007874016
147
0.09
171
3
172
1
271
2
272
2
274
3
278
44
283
0
284
8
340
11
  0
ENDTAB
  0
TABLE
  2
BLOCK_RECORD
  5
1
100
AcDbSymbolTable
 70
1
  0
BLOCK_RECORD
  5
1F
100
AcDbSymbolTableRecord
100
AcDbBlockTableRecord
  2
*Model_Space
340
22
  0
BLOCK_RECORD
  5
1B
100
AcDbSymbolTableRecord
100
AcDbBlockTableRecord
  2
*Paper_Space
340
1E
  0
BLOCK_RECORD
  5
23
100
AcDbSymbolTableRecord
100
AcDbBlockTableRecord
  2
*Paper_Space0
340
26
  0
ENDTAB
  0
ENDSEC
  0
SECTION
  2
BLOCKS
  0
BLOCK
  5
20
100
AcDbEntity
  8
0
100
AcDbBlockBegin
  2
*Model_Space
 70
0
 10
0.0
 20
0.0
 30
0.0
  3
*Model_Space
  1

  0
ENDBLK
  5
21
100
AcDbEntity
  8
0
100
AcDbBlockEnd
  0
BLOCK
  5
1C
100
AcDbEntity
 67
1
  8
0
100
AcDbBlockBegin
  2
*Paper_Space
 70
0
 10
0.0
 20
0.0
 30
0.0
  3
*Paper_Space
  1

  0
ENDBLK
  5
1D
100
AcDbEntity
 67
1
  8
0
100
AcDbBlockEnd
  0
BLOCK
  5
24
100
AcDbEntity
  8
0
100
AcDbBlockBegin
  2
*Paper_Space0
 70
0
 10
0.0
 20
0.0
 30
0.0
  3
*Paper_Space0
  1

  0
ENDBLK
  5
25
100
AcDbEntity
  8
0
100
AcDbBlockEnd
  0
ENDSEC
  0
SECTION
  2
ENTITIES
  0
HATCH
  5
47
  8
TEXT
 62
256
370
-1
  6
ByLayer
100
AcDbEntity
100
AcDbHatch
 10
0.0
 20
0.0
 30
0.0
210
0.0
220
0.0
230
1.0
  2
SOLID
 70
1
 71
0
 91
1
 92
1
 93
3
 72
1
 10
823.4815928458732515
 20
267.3300935118377311
 11
821.0785195216618604
 21
276.885424979789093
 72
1
 10
821.0785195216618604
 20
276.885424979789093
 11
825.8846661700846425
 21
276.885424979789093
 72
1
 10
825.8846661700846425
 20
276.885424979789093
 11
823.4815928458732515
 21
267.3300935118377311
 97
0
 75
0
 76
1
 98
0
  0
HATCH
  5
48
  8
TEXT
 62
256
370
-1
  6
ByLayer
100
AcDbEntity
100
AcDbHatch
 10
0.0
 20
0.0
 30
0.0
210
0.0
220
0.0
230
1.0
  2
SOLID
 70
1
 71
0
 91
1
 92
1
 93
3
 72
1
 10
898.8977719478114068
 20
464.3805538055267448
 11
889.3424404798601017
 21
461.9774804813153537
 72
1
 10
889.3424404798601017
 20
461.9774804813153537
 11
889.3424404798601017
 21
466.7836271297381359
 72
1
 10
889.3424404798601017
 20
466.7836271297381359
 11
898.8977719478114068
 21
464.3805538055267448
 97
0
 75
0
 76
1
 98
0
  0
HATCH
  5
49
  8
TEXT
 62
256
370
-1
  6
ByLayer
100
AcDbEntity
100
AcDbHatch
 10
0.0
 20
0.0
 30
0.0
210
0.0
220
0.0
230
1.0
  2
SOLID
 70
1
 71
0
 91
1
 92
1
 93
3
 72
1
 10
793.3096714743353459
 20
453.4162034737016143
 11
783.7543400063840409
 21
451.0131301494902232
 72
1
 10
783.7543400063840409
 20
451.0131301494902232
 11
783.7543400063840409
 21
455.8192767979130053
 72
1
 10
783.7543400063840409
 20
455.8192767979130053
 11
793.3096714743353459
 21
453.4162034737016143
 97
0
 75
0
 76
1
 98
0
  0
HATCH
  5
4A
  8
TEXT
 62
256
370
-1
  6
ByLayer
100
AcDbEntity
100
AcDbHatch
 10
0.0
 20
0.0
 30
0.0
210
0.0
220
0.0
230
1.0
  2
SOLID
 70
1
 71
0
 91
1
 92
1
 93
3
 72
1
 10
635.2160174733543272
 20
548.7991683147242838
 11
637.6190907975657183
 21
539.2438368467729788
 72
1
 10
637.6190907975657183
 20
539.2438368467729788
 11
632.8129441491429361
 21
539.2438368467729788
 72
1
 10
632.8129441491429361
 20
539.2438368467729788
 11
635.2160174733543272
 21
548.7991683147242838
 97
0
 75
0
 76
1
 98
0
  0
HATCH
  5
4B
  8
TEXT
 62
256
370
-1
  6
ByLayer
100
AcDbEntity
100
AcDbHatch
 10
0.0
 20
0.0
 30
0.0
210
0.0
220
0.0
230
1.0
  2
SOLID
 70
1
 71
0
 91
1
 92
1
 93
3
 72
1
 10
540.723285806875765
 20
593.9592395452916662
 11
550.2786172748270701
 21
596.3623128695030573
 72
1
 10
550.2786172748270701
 20
596.3623128695030573
 11
550.2786172748270701
 21
591.5561662210802751
 72
1
 10
550.2786172748270701
 20
591.5561662210802751
 11
540.723285806875765
 21
593.9592395452916662
 97
0
 75
0
 76
1
 98
0
  0
LINE
  5
4C
100
AcDbEntity
100
AcDbLine
  8
PARETS
 62
256
370
-1
  6
ByLayer
 10
34.0537525684092657
 20
470.5685693652346231
 30
0.0
 11
34.0537525684092657
 21
516.2987212075844354
 31
0.0
  0
LINE
  5
4D
100
AcDbEntity
100
AcDbLine
  8
PARETS
 62
256
370
-1
  6
ByLayer
 10
34.0537525684094433
 20
811.2987212075847765
 30
0.0
 11
124.0537525684094788
 21
811.2987212075847765
 31
0.0
  0
LINE
  5
4E
100
AcDbEntity
100
AcDbLine
  8
PARETS
 62
256
370
-1
  6
ByLayer
 10
4.0537525684093696
 20
841.2987212075844354
 30
0.0
 11
4.0537525684100801
 21
471.2987212075847197
 31
0.0
  0
LINE
  5
4F
100
AcDbEntity
100
AcDbLine
  8
PARETS
 62
256
370
-1
  6
ByLayer
 10
4.0537525684093696
 20
841.2987212075844354
 30
0.0
 11
124.0537525684094788
 21
841.2987212075844354
 31
0.0
  0
LINE
  5
50
100
AcDbEntity
100
AcDbLine
  8
PARETS
 62
256
370
-1
  6
ByLayer
 10
264.0537525684093225
 20
811.2987212075847765
 30
0.0
 11
554.0537525684097773
 21
811.2987212075847765
 31
0.0
  0
LINE
  5
51
100
AcDbEntity
100
AcDbLine
  8
PARETS
 62
256
370
-1
  6
ByLayer
 10
904.0537525684093225
 20
811.2987212075847765
 30
0.0
 11
904.0537525684093225
 21
741.2987212075844354
 31
0.0
  0
LINE
  5
52
100
AcDbEntity
100
AcDbLine
  8
PARETS
 62
256
370
-1
  6
ByLayer
 10
934.0537525684094362
 20
841.2987212075844354
 30
0.0
 11
264.0537525684100046
 21
841.2987212075844354
 31
0.0
  0
LINE
  5
53
100
AcDbEntity
100
AcDbLine
  8
PARETS
 62
256
370
-1
  6
ByLayer
 10
934.0537525684094362
 20
841.2987212075844354
 30
0.0
 11
934.0537525684094362
 21
741.2987212075844354
 31
0.0
  0
LINE
  5
54
100
AcDbEntity
100
AcDbLine
  8
PARETS
 62
256
370
-1
  6
ByLayer
 10
69.0537525684094078
 20
41.2987212075846486
 30
0.0
 11
34.0537525684092657
 21
41.2987212075846486
 31
0.0
  0
LINE
  5
55
100
AcDbEntity
100
AcDbLine
  8
PARETS
 62
256
370
-1
  6
ByLayer
 10
34.0537525684092657
 20
41.2987212075846486
 30
0.0
 11
34.0537525684092657
 21
161.2987212075845775
 31
0.0
  0
LINE
  5
56
100
AcDbEntity
100
AcDbLine
  8
PARETS
 62
256
370
-1
  6
ByLayer
 10
4.0537525684092808
 20
11.2987212075845793
 30
0.0
 11
69.0537525684094078
 21
11.2987212075845793
 31
0.0
  0
LINE
  5
57
100
AcDbEntity
100
AcDbLine
  8
PARETS
 62
256
370
-1
  6
ByLayer
 10
1039.0537525684089815
 20
516.2987212075837533
 30
0.0
 11
1029.0537525684092088
 21
516.2987212075837533
 31
0.0
  0
LINE
  5
58
100
AcDbEntity
100
AcDbLine
  8
PARETS
 62
256
370
-1
  6
ByLayer
 10
997.4479509833304292
 20
516.2987212075837533
 30
0.0
 11
1024.0537525684092088
 21
516.2987212075837533
 31
0.0
  0
LINE
  5
59
100
AcDbEntity
100
AcDbLine
  8
PARETS
 62
256
370
-1
  6
ByLayer
 10
1104.0537525684092088
 20
546.2987212075845491
 30
0.0
 11
1104.0537525684092088
 21
96.2987212075847197
 31
0.0
  0
LINE
  5
5A
100
AcDbEntity
100
AcDbLine
  8
PARETS
 62
256
370
-1
  6
ByLayer
 10
1074.0537525684092088
 20
96.2987212075847197
 30
0.0
 11
1074.0537525684092088
 21
41.2987212075846486
 31
0.0
  0
LINE
  5
5B
100
AcDbEntity
100
AcDbLine
  8
PARETS
 62
256
370
-1
  6
ByLayer
 10
1074.0537525684092088
 20
41.2987212075846486
 30
0.0
 11
1006.1986110224323738
 21
41.2987212075835828
 31
0.0
  0
LINE
  5
5C
100
AcDbEntity
100
AcDbLine
  8
PARETS
 62
256
370
-1
  6
ByLayer
 10
1104.0537525684092088
 20
11.2987212075845793
 30
0.0
 11
1104.0537525684092088
 21
96.2987212075847197
 31
0.0
  0
LINE
  5
5D
100
AcDbEntity
100
AcDbLine
  8
PARETS
 62
256
370
-1
  6
ByLayer
 10
1104.0537525684092088
 20
11.2987212075845793
 30
0.0
 11
1006.1986110224323738
 21
11.2987212075845793
 31
0.0
  0
LINE
  5
5E
100
AcDbEntity
100
AcDbLine
  8
PARETS
 62
256
370
-1
  6
ByLayer
 10
904.0537525684093225
 20
531.2987212075846628
 30
0.0
 11
904.0537525684093225
 21
601.2987212075835259
 31
0.0
  0
LINE
  5
5F
100
AcDbEntity
100
AcDbLine
  8
PARETS
 62
256
370
-1
  6
ByLayer
 10
934.0537525684094362
 20
546.2987212075845491
 30
0.0
 11
984.0537525684094362
 21
546.2987212075845491
 31
0.0
  0
LINE
  5
60
100
AcDbEntity
100
AcDbLine
  8
PARETS
 62
256
370
-1
  6
ByLayer
 10
934.0537525684094362
 20
546.2987212075845491
 30
0.0
 11
934.0537525684094362
 21
691.2987212075837533
 31
0.0
  0
LINE
  5
61
100
AcDbEntity
100
AcDbLine
  8
PARETS
 62
256
370
-1
  6
ByLayer
 10
934.0537525684094362
 20
601.2987212075835259
 30
0.0
 11
904.0537525684093225
 21
601.2987212075835259
 31
0.0
  0
LINE
  5
62
100
AcDbEntity
100
AcDbLine
  8
PARETS
 62
256
370
-1
  6
ByLayer
 10
34.0537525684092657
 20
470.5685693652346231
 30
0.0
 11
34.0537525684092657
 21
336.298721207584606
 31
0.0
  0
LINE
  5
63
100
AcDbEntity
100
AcDbLine
  8
PARETS
 62
256
370
-1
  6
ByLayer
 10
4.053752568409192
 20
471.2987212075847197
 30
0.0
 11
34.0537525684091733
 21
471.2987212075847197
 31
0.0
  0
LINE
  5
64
100
AcDbEntity
100
AcDbLine
  8
PARETS
 62
256
370
-1
  6
ByLayer
 10
34.0537525684092657
 20
471.2987212075847197
 30
0.0
 11
34.0537525684092657
 21
381.2987212075847197
 31
0.0
  0
LINE
  5
65
100
AcDbEntity
100
AcDbLine
  8
PARETS
 62
256
370
-1
  6
ByLayer
 10
34.0537525684091733
 20
381.2987212075847197
 30
0.0
 11
4.053752568409192
 21
381.2987212075847197
 31
0.0
  0
LINE
  5
66
100
AcDbEntity
100
AcDbLine
  8
PARETS
 62
256
370
-1
  6
ByLayer
 10
26.0537525684091662
 20
471.2987212075847197
 30
0.0
 11
26.0537525684091662
 21
381.2987212075847197
 31
0.0
  0
LINE
  5
67
100
AcDbEntity
100
AcDbLine
  8
PARETS
 62
256
370
-1
  6
ByLayer
 10
30.0537525684091698
 20
466.2987212075835828
 30
0.0
 11
30.0537525684091698
 21
426.2987212075837533
 31
0.0
  0
LINE
  5
68
100
AcDbEntity
100
AcDbLine
  8
PARETS
 62
256
370
-1
  6
ByLayer
 10
34.0537525684091733
 20
386.298721207584606
 30
0.0
 11
26.0537525684091662
 21
386.298721207584606
 31
0.0
  0
LINE
  5
69
100
AcDbEntity
100
AcDbLine
  8
PARETS
 62
256
370
-1
  6
ByLayer
 10
26.0537525684091662
 20
466.2987212075835828
 30
0.0
 11
34.0537525684091733
 21
466.2987212075835828
 31
0.0
  0
LINE
  5
6A
100
AcDbEntity
100
AcDbLine
  8
PARETS
 62
256
370
-1
  6
ByLayer
 10
30.0537525684091698
 20
426.2987212075837533
 30
0.0
 11
30.0537525684091698
 21
386.298721207584606
 31
0.0
  0
LINE
  5
6B
100
AcDbEntity
100
AcDbLine
  8
PARETS
 62
256
370
-1
  6
ByLayer
 10
299.0537525684093794
 20
41.2987212075846486
 30
0.0
 11
299.0537525684092088
 21
-118.7012787924156783
 31
0.0
  0
LINE
  5
6C
100
AcDbEntity
100
AcDbLine
  8
PARETS
 62
256
370
-1
  6
ByLayer
 10
284.0537525684094931
 20
41.2987212075846486
 30
0.0
 11
209.0537525684091804
 21
41.2987212075846486
 31
0.0
  0
LINE
  5
6D
100
AcDbEntity
100
AcDbLine
  8
PARETS
 62
256
370
-1
  6
ByLayer
 10
269.0537525684093794
 20
11.2987212075845793
 30
0.0
 11
209.0537525684091804
 21
11.2987212075845793
 31
0.0
  0
LINE
  5
6E
100
AcDbEntity
100
AcDbLine
  8
PARETS
 62
256
370
-1
  6
ByLayer
 10
269.0537525684093794
 20
11.2987212075845793
 30
0.0
 11
269.0537525684093794
 21
-118.7012787924156783
 31
0.0
  0
LINE
  5
6F
100
AcDbEntity
100
AcDbLine
  8
PARETS
 62
256
370
-1
  6
ByLayer
 10
269.0537525684093794
 20
-118.7012787924156783
 30
0.0
 11
789.0537525684092088
 21
-118.7012787924110455
 31
0.0
  0
LINE
  5
70
100
AcDbEntity
100
AcDbLine
  8
PARETS
 62
256
370
-1
  6
ByLayer
 10
989.0537525684090951
 20
524.2987212075846628
 30
0.0
 11
989.0537525684090951
 21
516.2987212075837533
 31
0.0
  0
LINE
  5
71
100
AcDbEntity
100
AcDbLine
  8
PARETS
 62
256
370
-1
  6
ByLayer
 10
984.0537525684094362
 20
526.2987212075835259
 30
0.0
 11
984.0537525684094362
 21
516.2987212075837533
 31
0.0
  0
LINE
  5
72
100
AcDbEntity
100
AcDbLine
  8
PARETS
 62
256
370
-1
  6
ByLayer
 10
989.0537525684090951
 20
524.2987212075846628
 30
0.0
 11
989.0537525684090951
 21
516.2987212075837533
 31
0.0
  0
LINE
  5
73
100
AcDbEntity
100
AcDbLine
  8
PARETS
 62
256
370
-1
  6
ByLayer
 10
1029.0537525684092088
 20
516.2987212075837533
 30
0.0
 11
1029.0537525684092088
 21
524.2987212075846628
 31
0.0
  0
LINE
  5
74
100
AcDbEntity
100
AcDbLine
  8
PARETS
 62
256
370
-1
  6
ByLayer
 10
984.0537525684094362
 20
524.2987212075846628
 30
0.0
 11
1034.0537525684092088
 21
524.2987212075846628
 31
0.0
  0
LINE
  5
75
100
AcDbEntity
100
AcDbLine
  8
PARETS
 62
256
370
-1
  6
ByLayer
 10
1034.0537525684092088
 20
516.2987212075837533
 30
0.0
 11
1034.0537525684092088
 21
546.2987212075845491
 31
0.0
  0
LINE
  5
76
100
AcDbEntity
100
AcDbLine
  8
PARETS
 62
256
370
-1
  6
ByLayer
 10
984.0537525684094362
 20
546.2987212075845491
 30
0.0
 11
984.0537525684094362
 21
516.2987212075837533
 31
0.0
  0
LINE
  5
77
100
AcDbEntity
100
AcDbLine
  8
PARETS
 62
256
370
-1
  6
ByLayer
 10
909.0537525684094362
 20
691.2987212075837533
 30
0.0
 11
909.0537525684094362
 21
696.2987212075845491
 31
0.0
  0
LINE
  5
78
100
AcDbEntity
100
AcDbLine
  8
PARETS
 62
256
370
-1
  6
ByLayer
 10
904.0537525684093225
 20
691.2987212075837533
 30
0.0
 11
904.0537525684093225
 21
696.2987212075845491
 31
0.0
  0
LINE
  5
79
100
AcDbEntity
100
AcDbLine
  8
PARETS
 62
256
370
-1
  6
ByLayer
 10
904.0537525684093225
 20
614.2987212075844354
 30
0.0
 11
824.1100223577172983
 21
614.2987212075844354
 31
0.0
  0
ARC
  5
7A
100
AcDbEntity
  8
PARETS
 62
256
370
-1
  6
ByLayer
100
AcDbCircle
 10
904.0537525684093225
 20
611.2987212075836396
 30
0.0
 40
80.0
100
AcDbArc
 50
90.0
 51
180.0
  0
LINE
  5
7B
100
AcDbEntity
100
AcDbLine
  8
PARETS
 62
256
370
-1
  6
ByLayer
 10
904.0537525684093225
 20
691.2987212075837533
 30
0.0
 11
938.0537525684093225
 21
691.2987212075837533
 31
0.0
  0
LINE
  5
7C
100
AcDbEntity
100
AcDbLine
  8
PARETS
 62
256
370
-1
  6
ByLayer
 10
904.0537525684093225
 20
696.2987212075845491
 30
0.0
 11
909.0537525684094362
 21
696.2987212075834123
 31
0.0
  0
LINE
  5
7D
100
AcDbEntity
100
AcDbLine
  8
PARETS
 62
256
370
-1
  6
ByLayer
 10
909.0537525684094362
 20
606.2987212075846628
 30
0.0
 11
909.0537525684094362
 21
601.2987212075835259
 31
0.0
  0
LINE
  5
7E
100
AcDbEntity
100
AcDbLine
  8
PARETS
 62
256
370
-1
  6
ByLayer
 10
909.0537525684094362
 20
611.2987212075836396
 30
0.0
 11
824.0537525684092088
 21
611.2987212075836396
 31
0.0
  0
LINE
  5
7F
100
AcDbEntity
100
AcDbLine
  8
PARETS
 62
256
370
-1
  6
ByLayer
 10
909.0537525684094362
 20
606.2987212075846628
 30
0.0
 11
909.0537525684094362
 21
611.2987212075836396
 31
0.0
  0
LINE
  5
80
100
AcDbEntity
100
AcDbLine
  8
PARETS
 62
256
370
-1
  6
ByLayer
 10
904.0537525684093225
 20
606.2987212075846628
 30
0.0
 11
909.0537525684094362
 21
606.2987212075846628
 31
0.0
  0
LINE
  5
81
100
AcDbEntity
100
AcDbLine
  8
PARETS
 62
256
370
-1
  6
ByLayer
 10
904.0537525684093225
 20
601.2987212075835259
 30
0.0
 11
904.0537525684093225
 21
606.2987212075846628
 31
0.0
  0
LINE
  5
82
100
AcDbEntity
100
AcDbLine
  8
PARETS
 62
256
370
-1
  6
ByLayer
 10
904.0537525684093225
 20
606.2987212075846628
 30
0.0
 11
904.0537525684093225
 21
614.2987212075844354
 31
0.0
  0
LINE
  5
83
100
AcDbEntity
100
AcDbLine
  8
PARETS
 62
256
370
-1
  6
ByLayer
 10
904.0537525684093225
 20
696.2987212075845491
 30
0.0
 11
904.0537525684093225
 21
741.2987212075844354
 31
0.0
  0
LINE
  5
84
100
AcDbEntity
100
AcDbLine
  8
PARETS
 62
256
370
-1
  6
ByLayer
 10
909.0537525684094362
 20
696.2987212075845491
 30
0.0
 11
909.0537525684094362
 21
741.2987212075844354
 31
0.0
  0
LINE
  5
85
100
AcDbEntity
100
AcDbLine
  8
PARETS
 62
256
370
-1
  6
ByLayer
 10
904.0537525684093225
 20
741.2987212075844354
 30
0.0
 11
938.0537525684093225
 21
741.2987212075844354
 31
0.0
  0
LINE
  5
86
100
AcDbEntity
100
AcDbLine
  8
PARETS
 62
256
370
-1
  6
ByLayer
 10
904.0537525684093225
 20
736.2987212075836396
 30
0.0
 11
909.0537525684094362
 21
736.2987212075836396
 31
0.0
  0
LINE
  5
87
100
AcDbEntity
100
AcDbLine
  8
PARETS
 62
256
370
-1
  6
ByLayer
 10
904.0537525684093225
 20
531.2987212075836396
 30
0.0
 11
654.0537525684103457
 21
531.2987212075846628
 31
0.0
  0
LINE
  5
88
100
AcDbEntity
100
AcDbLine
  8
PARETS
 62
256
370
-1
  6
ByLayer
 10
309.0537525684094362
 20
336.2987212075836965
 30
0.0
 11
299.0537525684092088
 21
336.2987212075836965
 31
0.0
  0
LINE
  5
89
100
AcDbEntity
100
AcDbLine
  8
PARETS
 62
256
370
-1
  6
ByLayer
 10
284.0537525684094362
 20
321.2987212075836965
 30
0.0
 11
34.0537525684092657
 21
321.2987212075836965
 31
0.0
  0
LINE
  5
8A
100
AcDbEntity
100
AcDbLine
  8
PARETS
 62
256
370
-1
  6
ByLayer
 10
299.0537525684093794
 20
41.2987212075846486
 30
0.0
 11
299.0537525684095499
 21
179.298721207583668
 31
0.0
  0
LINE
  5
8B
100
AcDbEntity
100
AcDbLine
  8
PARETS
 62
256
370
-1
  6
ByLayer
 10
284.0537525684094362
 20
41.2987212075846486
 30
0.0
 11
284.0537525684094362
 21
171.298721207583668
 31
0.0
  0
LINE
  5
8C
100
AcDbEntity
100
AcDbLine
  8
PARETS
 62
256
370
-1
  6
ByLayer
 10
759.0537525684093225
 20
41.2987212075846486
 30
0.0
 11
759.0537525684093225
 21
-118.701278792411216
 31
0.0
  0
LINE
  5
8D
100
AcDbEntity
100
AcDbLine
  8
PARETS
 62
256
370
-1
  6
ByLayer
 10
789.0537525684092088
 20
11.2987212075845793
 30
0.0
 11
789.0537525684092088
 21
-118.7012787924156783
 31
0.0
  0
LINE
  5
8E
100
AcDbEntity
100
AcDbLine
  8
PARETS
 62
256
370
-1
  6
ByLayer
 10
759.0537525684093225
 20
41.2987212075846486
 30
0.0
 11
759.0537525684093225
 21
431.2987212075847197
 31
0.0
  0
LINE
  5
8F
100
AcDbEntity
100
AcDbLine
  8
PARETS
 62
256
370
-1
  6
ByLayer
 10
774.0537525684092088
 20
41.2987212075846486
 30
0.0
 11
774.0537525684092088
 21
291.2987212075835828
 31
0.0
  0
LINE
  5
90
100
AcDbEntity
100
AcDbLine
  8
PARETS
 62
256
370
-1
  6
ByLayer
 10
759.0537525684093225
 20
516.2987212075844354
 30
0.0
 11
654.0537525684103457
 21
516.2987212075837533
 31
0.0
  0
LINE
  5
91
100
AcDbEntity
100
AcDbLine
  8
PARETS
 62
256
370
-1
  6
ByLayer
 10
554.0537525684095499
 20
811.2987212075847765
 30
0.0
 11
554.0537525684095499
 21
616.2987212075844354
 31
0.0
  0
LINE
  5
92
100
AcDbEntity
100
AcDbLine
  8
PARETS
 62
256
370
-1
  6
ByLayer
 10
569.0537525684096636
 20
811.2987212075847765
 30
0.0
 11
569.0537525684096636
 21
616.2987212075844354
 31
0.0
  0
LINE
  5
93
100
AcDbEntity
100
AcDbLine
  8
PARETS
 62
256
370
-1
  6
ByLayer
 10
554.0537525684095499
 20
531.2987212075846628
 30
0.0
 11
34.0537525684092657
 21
531.2987212075846628
 31
0.0
  0
LINE
  5
94
100
AcDbEntity
100
AcDbLine
  8
PARETS
 62
256
370
-1
  6
ByLayer
 10
874.0537525684092088
 20
301.2987212075837533
 30
0.0
 11
874.0537525684092088
 21
441.2987212075835828
 31
0.0
  0
LINE
  5
95
100
AcDbEntity
100
AcDbLine
  8
PARETS
 62
256
370
-1
  6
ByLayer
 10
874.0537525684092088
 20
301.2987212075837533
 30
0.0
 11
849.0537525684092088
 21
301.2987212075846628
 31
0.0
  0
LINE
  5
96
100
AcDbEntity
100
AcDbLine
  8
PARETS
 62
256
370
-1
  6
ByLayer
 10
879.0537525684093225
 20
436.2987212075836965
 30
0.0
 11
874.0537525684092088
 21
436.2987212075836965
 31
0.0
  0
LINE
  5
97
100
AcDbEntity
100
AcDbLine
  8
PARETS
 62
256
370
-1
  6
ByLayer
 10
874.0537525684092088
 20
441.2987212075835828
 30
0.0
 11
879.0537525684093225
 21
441.2987212075835828
 31
0.0
  0
LINE
  5
98
100
AcDbEntity
100
AcDbLine
  8
PARETS
 62
256
370
-1
  6
ByLayer
 10
874.0537525684092088
 20
501.2987212075835828
 30
0.0
 11
879.0537525684093225
 21
501.2987212075835828
 31
0.0
  0
LINE
  5
99
100
AcDbEntity
100
AcDbLine
  8
PARETS
 62
256
370
-1
  6
ByLayer
 10
874.0537525684092088
 20
506.2987212075847197
 30
0.0
 11
879.0537525684093225
 21
506.2987212075847197
 31
0.0
  0
LINE
  5
9A
100
AcDbEntity
100
AcDbLine
  8
PARETS
 62
256
370
-1
  6
ByLayer
 10
874.0537525684092088
 20
501.2987212075835828
 30
0.0
 11
874.0537525684092088
 21
516.2987212075837533
 31
0.0
  0
LINE
  5
9B
100
AcDbEntity
100
AcDbLine
  8
PARETS
 62
256
370
-1
  6
ByLayer
 10
774.0537525684092088
 20
426.2987212075837533
 30
0.0
 11
759.0537525684093225
 21
426.2987212075837533
 31
0.0
  0
LINE
  5
9C
100
AcDbEntity
100
AcDbLine
  8
PARETS
 62
256
370
-1
  6
ByLayer
 10
759.0537525684093225
 20
496.2987212075845491
 30
0.0
 11
774.0537525684092088
 21
496.2987212075845491
 31
0.0
  0
LINE
  5
9D
100
AcDbEntity
100
AcDbLine
  8
PARETS
 62
256
370
-1
  6
ByLayer
 10
759.0537525684093225
 20
491.2987212075844923
 30
0.0
 11
759.0537525684093225
 21
516.2987212075837533
 31
0.0
  0
LINE
  5
9E
100
AcDbEntity
100
AcDbLine
  8
PARETS
 62
256
370
-1
  6
ByLayer
 10
774.0537525684092088
 20
491.2987212075844923
 30
0.0
 11
774.0537525684092088
 21
516.2987212075837533
 31
0.0
  0
LINE
  5
9F
100
AcDbEntity
100
AcDbLine
  8
PARETS
 62
256
370
-1
  6
ByLayer
 10
589.0537525684097773
 20
531.2987212075846628
 30
0.0
 11
589.0537525684097773
 21
516.2987212075837533
 31
0.0
  0
LINE
  5
A0
100
AcDbEntity
100
AcDbLine
  8
PARETS
 62
256
370
-1
  6
ByLayer
 10
569.0537525684096636
 20
551.2987212075835259
 30
0.0
 11
554.0537525684095499
 21
551.2987212075835259
 31
0.0
  0
LINE
  5
A1
100
AcDbEntity
100
AcDbLine
  8
PARETS
 62
256
370
-1
  6
ByLayer
 10
594.0537525684100046
 20
516.2987212075837533
 30
0.0
 11
34.0537525684092657
 21
516.2987212075844354
 31
0.0
  0
LINE
  5
A2
100
AcDbEntity
100
AcDbLine
  8
PARETS
 62
256
370
-1
  6
ByLayer
 10
594.0537525684100046
 20
531.2987212075846628
 30
0.0
 11
569.0537525684096636
 21
531.2987212075846628
 31
0.0
  0
LINE
  5
A3
100
AcDbEntity
100
AcDbLine
  8
PARETS
 62
256
370
-1
  6
ByLayer
 10
569.0537525684096636
 20
556.2987212075846628
 30
0.0
 11
569.0537525684096636
 21
531.2987212075836396
 31
0.0
  0
LINE
  5
A4
100
AcDbEntity
100
AcDbLine
  8
PARETS
 62
256
370
-1
  6
ByLayer
 10
554.0537525684095499
 20
556.2987212075846628
 30
0.0
 11
554.0537525684095499
 21
531.2987212075836396
 31
0.0
  0
LINE
  5
A5
100
AcDbEntity
100
AcDbLine
  8
PARETS
 62
256
370
-1
  6
ByLayer
 10
784.0537525684093225
 20
291.2987212075835828
 30
0.0
 11
784.0537525684093225
 21
301.2987212075837533
 31
0.0
  0
LINE
  5
A6
100
AcDbEntity
100
AcDbLine
  8
PARETS
 62
256
370
-1
  6
ByLayer
 10
774.0537525684092088
 20
301.2987212075837533
 30
0.0
 11
774.0537525684092088
 21
431.2987212075847197
 31
0.0
  0
LINE
  5
A7
100
AcDbEntity
100
AcDbLine
  8
PARETS
 62
256
370
-1
  6
ByLayer
 10
854.0537525684093225
 20
291.2987212075835828
 30
0.0
 11
854.0537525684093225
 21
301.2987212075837533
 31
0.0
  0
LINE
  5
A8
100
AcDbEntity
100
AcDbLine
  8
PARETS
 62
256
370
-1
  6
ByLayer
 10
789.0537525684092088
 20
301.2987212075837533
 30
0.0
 11
774.0537525684092088
 21
301.2987212075837533
 31
0.0
  0
LINE
  5
A9
100
AcDbEntity
100
AcDbLine
  8
PARETS
 62
256
370
-1
  6
ByLayer
 10
659.0537525684093225
 20
531.2987212075846628
 30
0.0
 11
659.0537525684093225
 21
516.2987212075837533
 31
0.0
  0
LINE
  5
AA
100
AcDbEntity
100
AcDbLine
  8
PARETS
 62
256
370
-1
  6
ByLayer
 10
569.0537525684096636
 20
621.2987212075845491
 30
0.0
 11
554.0537525684095499
 21
621.2987212075845491
 31
0.0
  0
LINE
  5
AB
100
AcDbEntity
100
AcDbLine
  8
PARETS
 62
256
370
-1
  6
ByLayer
 10
299.0537525684093794
 20
301.2987212075837533
 30
0.0
 11
284.0537525684094362
 21
301.2987212075837533
 31
0.0
  0
LINE
  5
AC
100
AcDbEntity
100
AcDbLine
  8
PARETS
 62
256
370
-1
  6
ByLayer
 10
329.0537525684092657
 20
421.2987212075836965
 30
0.0
 11
119.0537525684093083
 21
421.2987212075847197
 31
0.0
  0
LINE
  5
AD
100
AcDbEntity
100
AcDbLine
  8
PARETS
 62
256
370
-1
  6
CONTINUOUS
 10
329.0537525684092657
 20
431.2987212075836396
 30
0.0
 11
186.9701910222785841
 21
431.2987212075836396
 31
0.0
  0
LINE
  5
AE
100
AcDbEntity
100
AcDbLine
  8
PARETS
 62
256
370
-1
  6
ByLayer
 10
34.0537525684092657
 20
336.298721207584606
 30
0.0
 11
119.0537525684093083
 21
336.298721207584606
 31
0.0
  0
LINE
  5
AF
100
AcDbEntity
100
AcDbLine
  8
PARETS
 62
256
370
-1
  6
ByLayer
 10
119.0537525684094078
 20
421.2987212075847197
 30
0.0
 11
119.0537525684094078
 21
431.2987212075836396
 31
0.0
  0
LINE
  5
B0
100
AcDbEntity
100
AcDbLine
  8
PARETS
 62
256
370
-1
  6
ByLayer
 10
329.0537525684092657
 20
346.2987212075836965
 30
0.0
 11
329.0537525684092657
 21
421.2987212075847197
 31
0.0
  0
LINE
  5
B1
100
AcDbEntity
100
AcDbLine
  8
PARETS
 62
256
370
-1
  6
CONTINUOUS
 10
174.7645180881399654
 20
424.2987212075836396
 30
0.0
 11
231.1373141145400609
 21
516.2987212075844354
 31
0.0
  0
LINE
  5
B2
100
AcDbEntity
100
AcDbLine
  8
PARETS
 62
256
370
-1
  6
ByLayer
 10
311.6980061833638729
 20
424.2987212075836396
 30
0.0
 11
122.0537525684093367
 21
424.2987212075836396
 31
0.0
  0
LINE
  5
B3
100
AcDbEntity
100
AcDbLine
  8
PARETS
 62
256
370
-1
  6
ByLayer
 10
177.2155092197226338
 20
428.2987212075836965
 30
0.0
 11
122.0537525684093367
 21
428.2987212075836965
 31
0.0
  0
LINE
  5
B4
100
AcDbEntity
100
AcDbLine
  8
PARETS
 62
256
370
-1
  6
ByLayer
 10
311.698006183363816
 20
421.2987212075836965
 30
0.0
 11
311.698006183363816
 21
424.2987212075836396
 31
0.0
  0
LINE
  5
B5
100
AcDbEntity
100
AcDbLine
  8
PARETS
 62
256
370
-1
  6
ByLayer
 10
122.0537525684095215
 20
424.2987212075846628
 30
0.0
 11
122.0537525684093367
 21
428.2987212075836965
 31
0.0
  0
LINE
  5
B6
100
AcDbEntity
100
AcDbLine
  8
PARETS
 62
256
370
-1
  6
ByLayer
 10
299.0537525684092088
 20
-88.7012787924154225
 30
0.0
 11
546.0537525684094362
 21
-88.7012787924132908
 31
0.0
  0
LINE
  5
B7
100
AcDbEntity
100
AcDbLine
  8
PARETS
 62
256
370
-1
  6
ByLayer
 10
299.0537525684092088
 20
-93.7012787924163888
 30
0.0
 11
544.0537525684093225
 21
-93.7012787924133619
 31
0.0
  0
LINE
  5
B8
100
AcDbEntity
100
AcDbLine
  8
PARETS
 62
256
370
-1
  6
ByLayer
 10
304.0537525684092657
 20
-88.7012787924154225
 30
0.0
 11
304.0537525684090951
 21
-93.7012787924163888
 31
0.0
  0
LINE
  5
B9
100
AcDbEntity
100
AcDbLine
  8
PARETS
 62
256
370
-1
  6
ByLayer
 10
754.0537525684092088
 20
-88.7012787924314097
 30
0.0
 11
754.0537525684092088
 21
-93.7012787924323618
 31
0.0
  0
LINE
  5
BA
100
AcDbEntity
100
AcDbLine
  8
PARETS
 62
256
370
-1
  6
ByLayer
 10
684.0537525684093225
 20
-88.701278792429278
 30
0.0
 11
684.0537525684093225
 21
-93.7012787924293491
 31
0.0
  0
LINE
  5
BB
100
AcDbEntity
100
AcDbLine
  8
PARETS
 62
256
370
-1
  6
ByLayer
 10
544.0537525684094362
 20
-88.7012787924243042
 30
0.0
 11
544.0537525684093225
 21
-93.7012787924243753
 31
0.0
  0
LINE
  5
BC
100
AcDbEntity
100
AcDbLine
  8
PARETS
 62
256
370
-1
  6
ByLayer
 10
384.053752568409152
 20
-88.7012787924184352
 30
0.0
 11
384.0537525684089815
 21
-93.7012787924183357
 31
0.0
  0
LINE
  5
BD
100
AcDbEntity
100
AcDbLine
  8
PARETS
 62
256
370
-1
  6
ByLayer
 10
464.0537525684094931
 20
-88.7012787924212773
 30
0.0
 11
464.0537525684093225
 21
-93.7012787924213626
 31
0.0
  0
LINE
  5
BE
100
AcDbEntity
100
AcDbLine
  8
PARETS
 62
256
370
-1
  6
ByLayer
 10
382.0537525684092657
 20
-88.7012787924184352
 30
0.0
 11
382.0537525684090951
 21
-93.7012787924183357
 31
0.0
  0
LINE
  5
BF
100
AcDbEntity
100
AcDbLine
  8
PARETS
 62
256
370
-1
  6
ByLayer
 10
386.0537525684092088
 20
-88.7012787924184352
 30
0.0
 11
386.0537525684090383
 21
-93.7012787924183357
 31
0.0
  0
LINE
  5
C0
100
AcDbEntity
100
AcDbLine
  8
PARETS
 62
256
370
-1
  6
ByLayer
 10
462.0537525684095499
 20
-88.7012787924212773
 30
0.0
 11
462.0537525684093794
 21
-93.7012787924213626
 31
0.0
  0
LINE
  5
C1
100
AcDbEntity
100
AcDbLine
  8
PARETS
 62
256
370
-1
  6
ByLayer
 10
466.0537525684094362
 20
-88.7012787924212773
 30
0.0
 11
466.0537525684092657
 21
-93.7012787924213626
 31
0.0
  0
LINE
  5
C2
100
AcDbEntity
100
AcDbLine
  8
PARETS
 62
256
370
-1
  6
ByLayer
 10
682.0537525684092088
 20
-88.7012787924124098
 30
0.0
 11
759.0537525684093225
 21
-88.7012787924113297
 31
0.0
  0
LINE
  5
C3
100
AcDbEntity
100
AcDbLine
  8
PARETS
 62
256
370
-1
  6
ByLayer
 10
684.0537525684093225
 20
-93.7012787924122961
 30
0.0
 11
759.0537525684093225
 21
-93.701278792411415
 31
0.0
  0
LINE
  5
C4
100
AcDbEntity
100
AcDbLine
  8
PARETS
 62
256
370
-1
  6
ByLayer
 10
544.0537525684094362
 20
-88.7012787924132908
 30
0.0
 11
544.0537525684094362
 21
-18.7012787924133619
 31
0.0
  0
ARC
  5
C5
100
AcDbEntity
  8
PARETS
 62
256
370
-1
  6
ByLayer
100
AcDbCircle
 10
544.0537525684094362
 20
-88.7012787924132908
 30
0.0
 40
70.0000000000000142
100
AcDbArc
 50
0.0
 51
89.9999999999999858
  0
LINE
  5
C6
100
AcDbEntity
100
AcDbLine
  8
PARETS
 62
256
370
-1
  6
ByLayer
 10
546.0537525684094362
 20
-88.7012787924132908
 30
0.0
 11
546.0537525684094362
 21
-18.7012787924133619
 31
0.0
  0
LINE
  5
C7
100
AcDbEntity
100
AcDbLine
  8
PARETS
 62
256
370
-1
  6
ByLayer
 10
682.0537525684092088
 20
-88.7012787924132908
 30
0.0
 11
682.0537525684092088
 21
-18.7012787924133619
 31
0.0
  0
ARC
  5
C8
100
AcDbEntity
  8
PARETS
 62
256
370
-1
  6
ByLayer
100
AcDbCircle
 10
684.0537525684093225
 20
-88.7012787924132908
 30
0.0
 40
70.0000000000000142
100
AcDbArc
 50
90.0000000000000142
 51
180.0
  0
LINE
  5
C9
100
AcDbEntity
100
AcDbLine
  8
PARETS
 62
256
370
-1
  6
ByLayer
 10
684.0537525684093225
 20
-88.7012787924132908
 30
0.0
 11
684.0537525684093225
 21
-18.7012787924133619
 31
0.0
  0
LINE
  5
CA
100
AcDbEntity
100
AcDbLine
  8
PARETS
 62
256
370
-1
  6
ByLayer
 10
539.0537525684093225
 20
-88.7012787924243042
 30
0.0
 11
539.0537525684092088
 21
-93.7012787924243753
 31
0.0
  0
LINE
  5
CB
100
AcDbEntity
100
AcDbLine
  8
PARETS
 62
256
370
-1
  6
ByLayer
 10
684.0537525684093225
 20
-88.7012787924124098
 30
0.0
 11
759.0537525684093225
 21
-88.7012787924113297
 31
0.0
  0
LINE
  5
CC
100
AcDbEntity
100
AcDbLine
  8
PARETS
 62
256
370
-1
  6
ByLayer
 10
684.0537525684093225
 20
-93.7012787924122961
 30
0.0
 11
759.0537525684093225
 21
-93.701278792411415
 31
0.0
  0
LINE
  5
CD
100
AcDbEntity
100
AcDbLine
  8
PARETS
 62
256
370
-1
  6
ByLayer
 10
689.0537525684092088
 20
-88.701278792429278
 30
0.0
 11
689.0537525684092088
 21
-93.7012787924293491
 31
0.0
  0
LINE
  5
CE
100
AcDbEntity
100
AcDbLine
  8
PARETS
 62
256
370
-1
  6
ByLayer
 10
284.053752568409152
 20
296.2987212075836965
 30
0.0
 11
359.0537525684094362
 21
296.2987212075836965
 31
0.0
  0
LINE
  5
CF
100
AcDbEntity
100
AcDbLine
  8
PARETS
 62
256
370
-1
  6
ByLayer
 10
284.053752568409152
 20
176.2987212075837249
 30
0.0
 11
359.0537525684094362
 21
176.2987212075837249
 31
0.0
  0
LINE
  5
D0
100
AcDbEntity
100
AcDbLine
  8
PARETS
 62
256
370
-1
  6
ByLayer
 10
299.0537525684093794
 20
171.298721207583668
 30
0.0
 11
284.0537525684094362
 21
171.298721207583668
 31
0.0
  0
LINE
  5
D1
100
AcDbEntity
100
AcDbLine
  8
PARETS
 62
256
370
-1
  6
ByLayer
 10
299.0537525684095499
 20
296.2987212075836965
 30
0.0
 11
299.0537525684095499
 21
301.2987212075837533
 31
0.0
  0
LINE
  5
D2
100
AcDbEntity
100
AcDbLine
  8
PARETS
 62
256
370
-1
  6
ByLayer
 10
284.0537525684094362
 20
301.2987212075837533
 30
0.0
 11
284.0537525684094362
 21
321.2987212075836965
 31
0.0
  0
LINE
  5
D3
100
AcDbEntity
100
AcDbLine
  8
PARETS
 62
256
370
-1
  6
ByLayer
 10
284.0537525684094362
 20
301.2987212075837533
 30
0.0
 11
284.0537525684094362
 21
296.2987212075836965
 31
0.0
  0
LINE
  5
D4
100
AcDbEntity
100
AcDbLine
  8
PARETS
 62
256
370
-1
  6
ByLayer
 10
284.0537525684094362
 20
176.2987212075837249
 30
0.0
 11
284.0537525684094362
 21
171.298721207583668
 31
0.0
  0
ARC
  5
D5
100
AcDbEntity
  8
PARETS
 62
256
370
-1
  6
ByLayer
100
AcDbCircle
 10
299.0537525684095499
 20
296.2987212075836965
 30
0.0
 40
59.9999999999997868
100
AcDbArc
 50
270.0
 51
0.0
  0
ARC
  5
D6
100
AcDbEntity
  8
PARETS
 62
256
370
-1
  6
ByLayer
100
AcDbCircle
 10
299.0537525684095499
 20
176.2987212075837249
 30
0.0
 40
59.9999999999997868
100
AcDbArc
 50
0.0000000000001527
 51
90.0000000000001563
  0
LINE
  5
D7
100
AcDbEntity
100
AcDbLine
  8
PARETS
 62
256
370
-1
  6
ByLayer
 10
29.0537525684092799
 20
171.2987212075847197
 30
0.0
 11
29.0537525684092799
 21
166.2987212075846344
 31
0.0
  0
LINE
  5
D8
100
AcDbEntity
100
AcDbLine
  8
PARETS
 62
256
370
-1
  6
ByLayer
 10
34.0537525684092657
 20
171.2987212075847197
 30
0.0
 11
34.0537525684092657
 21
166.2987212075846344
 31
0.0
  0
LINE
  5
D9
100
AcDbEntity
100
AcDbLine
  8
PARETS
 62
256
370
-1
  6
ByLayer
 10
34.0537525684092657
 20
248.2987212075846912
 30
0.0
 11
113.9974827791018015
 21
248.2987212075846912
 31
0.0
  0
ARC
  5
DA
100
AcDbEntity
  8
PARETS
 62
256
370
-1
  6
ByLayer
100
AcDbCircle
 10
34.0537525684091733
 20
251.298721207584606
 30
0.0
 40
80.0
100
AcDbArc
 50
270.0
 51
0.0000000000000013
  0
LINE
  5
DB
100
AcDbEntity
100
AcDbLine
  8
PARETS
 62
256
370
-1
  6
ByLayer
 10
34.0537525684092657
 20
171.2987212075847197
 30
0.0
 11
29.0537525684091911
 21
171.2987212075847197
 31
0.0
  0
LINE
  5
DC
100
AcDbEntity
100
AcDbLine
  8
PARETS
 62
256
370
-1
  6
ByLayer
 10
34.0537525684092657
 20
166.2987212075846344
 30
0.0
 11
29.0537525684091911
 21
166.2987212075846344
 31
0.0
  0
LINE
  5
DD
100
AcDbEntity
100
AcDbLine
  8
PARETS
 62
256
370
-1
  6
ByLayer
 10
29.0537525684092799
 20
256.2987212075847197
 30
0.0
 11
29.0537525684092799
 21
281.2987212075847197
 31
0.0
  0
LINE
  5
DE
100
AcDbEntity
100
AcDbLine
  8
PARETS
 62
256
370
-1
  6
ByLayer
 10
29.0537525684092799
 20
251.298721207584606
 30
0.0
 11
114.0537525684093367
 21
251.298721207584606
 31
0.0
  0
LINE
  5
DF
100
AcDbEntity
100
AcDbLine
  8
PARETS
 62
256
370
-1
  6
ByLayer
 10
29.0537525684092799
 20
256.2987212075847197
 30
0.0
 11
29.0537525684092799
 21
251.298721207584606
 31
0.0
  0
LINE
  5
E0
100
AcDbEntity
100
AcDbLine
  8
PARETS
 62
256
370
-1
  6
ByLayer
 10
34.0537525684092657
 20
256.2987212075847197
 30
0.0
 11
29.0537525684092799
 21
256.2987212075847197
 31
0.0
  0
LINE
  5
E1
100
AcDbEntity
100
AcDbLine
  8
PARETS
 62
256
370
-1
  6
ByLayer
 10
34.0537525684092657
 20
261.298721207584606
 30
0.0
 11
34.0537525684092657
 21
256.2987212075847197
 31
0.0
  0
LINE
  5
E2
100
AcDbEntity
100
AcDbLine
  8
PARETS
 62
256
370
-1
  6
ByLayer
 10
34.0537525684092657
 20
256.2987212075847197
 30
0.0
 11
34.0537525684092657
 21
248.2987212075846912
 31
0.0
  0
LINE
  5
E3
100
AcDbEntity
100
AcDbLine
  8
PARETS
 62
256
370
-1
  6
ByLayer
 10
34.0537525684092657
 20
166.2987212075846344
 30
0.0
 11
34.0537525684092657
 21
161.2987212075845775
 31
0.0
  0
LINE
  5
E4
100
AcDbEntity
100
AcDbLine
  8
PARETS
 62
256
370
-1
  6
ByLayer
 10
29.0537525684092799
 20
166.2987212075846344
 30
0.0
 11
29.0537525684092799
 21
161.2987212075845775
 31
0.0
  0
LINE
  5
E5
100
AcDbEntity
100
AcDbLine
  8
PARETS
 62
256
370
-1
  6
ByLayer
 10
34.0537525684092657
 20
261.298721207584606
 30
0.0
 11
34.0537525684092657
 21
321.2987212075836965
 31
0.0
  0
LINE
  5
E6
100
AcDbEntity
100
AcDbLine
  8
PARETS
 62
256
370
-1
  6
ByLayer
 10
29.0537525684091911
 20
281.2987212075847197
 30
0.0
 11
29.0537525684091911
 21
286.298721207584606
 31
0.0
  0
LINE
  5
E7
100
AcDbEntity
100
AcDbLine
  8
PARETS
 62
256
370
-1
  6
ByLayer
 10
34.0537525684092657
 20
136.2987212075845775
 30
0.0
 11
4.0537525684093696
 21
136.2987212075845775
 31
0.0
  0
LINE
  5
E8
100
AcDbEntity
100
AcDbLine
  8
PARETS
 62
256
370
-1
  6
ByLayer
 10
34.0537525684092657
 20
286.298721207584606
 30
0.0
 11
4.0537525684093696
 21
286.298721207584606
 31
0.0
  0
LINE
  5
E9
100
AcDbEntity
100
AcDbLine
  8
PARETS
 62
256
370
-1
  6
ByLayer
 10
34.0537525684092657
 20
141.2987212075846344
 30
0.0
 11
29.0537525684091911
 21
141.2987212075846344
 31
0.0
  0
LINE
  5
EA
100
AcDbEntity
100
AcDbLine
  8
PARETS
 62
256
370
-1
  6
ByLayer
 10
34.0537525684092657
 20
281.2987212075847197
 30
0.0
 11
29.0537525684092799
 21
281.2987212075847197
 31
0.0
  0
LINE
  5
EB
100
AcDbEntity
100
AcDbLine
  8
PARETS
 62
256
370
-1
  6
ByLayer
 10
29.0537525684093687
 20
136.2987212075845775
 30
0.0
 11
29.0537525684092799
 21
161.2987212075845775
 31
0.0
  0
LINE
  5
EC
100
AcDbEntity
100
AcDbLine
  8
PARETS
 62
256
370
-1
  6
ByLayer
 10
4.0537525684093696
 20
791.2987212075844354
 30
0.0
 11
34.0537525684092657
 21
791.2987212075837533
 31
0.0
  0
LINE
  5
ED
100
AcDbEntity
100
AcDbLine
  8
PARETS
 62
256
370
-1
  6
ByLayer
 10
34.0537525684092657
 20
551.2987212075835259
 30
0.0
 11
4.0537525684093696
 21
551.2987212075835259
 31
0.0
  0
LINE
  5
EE
100
AcDbEntity
100
AcDbLine
  8
PARETS
 62
256
370
-1
  6
ByLayer
 10
34.0537525684094433
 20
791.2987212075837533
 30
0.0
 11
34.0537525684094433
 21
811.2987212075847765
 31
0.0
  0
LINE
  5
EF
100
AcDbEntity
100
AcDbLine
  8
PARETS
 62
256
370
-1
  6
ByLayer
 10
69.0537525684094078
 20
41.2987212075846486
 30
0.0
 11
69.0537525684094078
 21
11.2987212075845793
 31
0.0
  0
LINE
  5
F0
100
AcDbEntity
100
AcDbLine
  8
PARETS
 62
256
370
-1
  6
ByLayer
 10
209.0537525684091804
 20
11.2987212075845793
 30
0.0
 11
209.0537525684091804
 21
41.2987212075846486
 31
0.0
  0
LINE
  5
F1
100
AcDbEntity
100
AcDbLine
  8
PARETS
 62
256
370
-1
  6
ByLayer
 10
264.0537525684100046
 20
841.2987212075844354
 30
0.0
 11
264.0537525684093225
 21
811.2987212075847765
 31
0.0
  0
LINE
  5
F2
100
AcDbEntity
100
AcDbLine
  8
PARETS
 62
256
370
-1
  6
ByLayer
 10
124.0537525684094788
 20
841.2987212075844354
 30
0.0
 11
124.0537525684094788
 21
811.2987212075847765
 31
0.0
  0
LINE
  5
F3
100
AcDbEntity
100
AcDbLine
  8
PARETS
 62
256
370
-1
  6
ByLayer
 10
569.0537525684097773
 20
811.2987212075847765
 30
0.0
 11
904.0537525684093225
 21
811.2987212075847765
 31
0.0
  0
LINE
  5
F4
100
AcDbEntity
100
AcDbLine
  8
PARETS
 62
256
370
-1
  6
ByLayer
 10
34.0537525684092657
 20
381.2987212075847197
 30
0.0
 11
34.0537525684092657
 21
341.2987212075835828
 31
0.0
  0
LINE
  5
F5
100
AcDbEntity
100
AcDbLine
  8
PARETS
 62
256
370
-1
  6
ByLayer
 10
34.0537525684092657
 20
336.2987212075836965
 30
0.0
 11
34.0537525684092657
 21
341.2987212075846628
 31
0.0
  0
LINE
  5
F6
100
AcDbEntity
100
AcDbLine
  8
PARETS
 62
256
370
-1
  6
ByLayer
 10
34.0537525684092657
 20
321.2987212075836965
 30
0.0
 11
34.0537525684092657
 21
286.298721207584606
 31
0.0
  0
LINE
  5
F7
100
AcDbEntity
100
AcDbLine
  8
PARETS
 62
256
370
-1
  6
ByLayer
 10
34.0537525684092657
 20
286.298721207584606
 30
0.0
 11
34.0537525684092657
 21
266.2987212075846628
 31
0.0
  0
LINE
  5
F8
100
AcDbEntity
100
AcDbLine
  8
PARETS
 62
256
370
-1
  6
ByLayer
 10
299.0537525684097204
 20
293.2987212075837533
 30
0.0
 11
299.0537525684093794
 21
336.2987212075836965
 31
0.0
  0
LINE
  5
F9
100
AcDbEntity
100
AcDbLine
  8
PARETS
 62
256
370
-1
  6
ByLayer
 10
319.0537525684093794
 20
336.2987212075836965
 30
0.0
 11
34.0537525684092657
 21
336.298721207584606
 31
0.0
  0
LINE
  5
FA
100
AcDbEntity
100
AcDbLine
  8
PARETS
 62
256
370
-1
  6
ByLayer
 10
34.0537525684092657
 20
531.2987212075846628
 30
0.0
 11
34.0537525684092657
 21
551.2987212075835259
 31
0.0
  0
LINE
  5
FB
100
AcDbEntity
100
AcDbLine
  8
PARETS
 62
256
370
-1
  6
ByLayer
 10
569.0537525684097773
 20
551.2987212075835259
 30
0.0
 11
554.0537525684095499
 21
551.2987212075835259
 31
0.0
  0
LINE
  5
FC
100
AcDbEntity
100
AcDbLine
  8
PARETS
 62
256
370
-1
  6
ByLayer
 10
569.0537525684097773
 20
556.2987212075846628
 30
0.0
 11
554.0537525684095499
 21
556.2987212075846628
 31
0.0
  0
LINE
  5
FD
100
AcDbEntity
100
AcDbLine
  8
PARETS
 62
256
370
-1
  6
ByLayer
 10
569.0537525684097773
 20
616.2987212075844354
 30
0.0
 11
554.0537525684095499
 21
616.2987212075844354
 31
0.0
  0
LINE
  5
FE
100
AcDbEntity
100
AcDbLine
  8
PARETS
 62
256
370
-1
  6
ByLayer
 10
554.0537525684095499
 20
621.2987212075845491
 30
0.0
 11
569.0537525684097773
 21
621.2987212075845491
 31
0.0
  0
LINE
  5
FF
100
AcDbEntity
100
AcDbLine
  8
PARETS
 62
256
370
-1
  6
ByLayer
 10
589.053752568409891
 20
516.2987212075844354
 30
0.0
 11
589.053752568409891
 21
531.2987212075846628
 31
0.0
  0
LINE
  5
100
100
AcDbEntity
100
AcDbLine
  8
PARETS
 62
256
370
-1
  6
ByLayer
 10
594.0537525684100046
 20
516.2987212075844354
 30
0.0
 11
594.0537525684100046
 21
531.2987212075846628
 31
0.0
  0
LINE
  5
101
100
AcDbEntity
100
AcDbLine
  8
PARETS
 62
256
370
-1
  6
ByLayer
 10
654.0537525684103457
 20
516.2987212075844354
 30
0.0
 11
654.0537525684103457
 21
531.2987212075846628
 31
0.0
  0
LINE
  5
102
100
AcDbEntity
100
AcDbLine
  8
PARETS
 62
256
370
-1
  6
ByLayer
 10
659.053752568410232
 20
531.2987212075846628
 30
0.0
 11
659.053752568410232
 21
516.2987212075844354
 31
0.0
  0
LINE
  5
103
100
AcDbEntity
100
AcDbLine
  8
PARETS
 62
256
370
-1
  6
ByLayer
 10
789.0537525684092088
 20
291.2987212075835828
 30
0.0
 11
789.0537525684092088
 21
301.2987212075837533
 31
0.0
  0
LINE
  5
104
100
AcDbEntity
100
AcDbLine
  8
PARETS
 62
256
370
-1
  6
ByLayer
 10
849.0537525684092088
 20
291.2987212075835828
 30
0.0
 11
849.0537525684092088
 21
301.2987212075837533
 31
0.0
  0
LINE
  5
105
100
AcDbEntity
100
AcDbLine
  8
PARETS
 62
256
370
-1
  6
ByLayer
 10
759.0537525684093225
 20
491.2987212075844923
 30
0.0
 11
774.0537525684092088
 21
491.2987212075844923
 31
0.0
  0
LINE
  5
106
100
AcDbEntity
100
AcDbLine
  8
PARETS
 62
256
370
-1
  6
ByLayer
 10
759.0537525684093225
 20
431.2987212075847197
 30
0.0
 11
774.0537525684092088
 21
431.2987212075847197
 31
0.0
  0
LINE
  5
107
100
AcDbEntity
100
AcDbLine
  8
PARETS
 62
256
370
-1
  6
ByLayer
 10
1074.0537525684092088
 20
291.2987212075846628
 30
0.0
 11
849.0537525684092088
 21
291.2987212075835828
 31
0.0
  0
LINE
  5
108
100
AcDbEntity
100
AcDbLine
  8
PARETS
 62
256
370
-1
  6
ByLayer
 10
789.0537525684092088
 20
291.2987212075835828
 30
0.0
 11
774.0537525684092088
 21
291.2987212075835828
 31
0.0
  0
LINE
  5
109
100
AcDbEntity
100
AcDbLine
  8
PARETS
 62
256
370
-1
  6
ByLayer
 10
874.0537525684092088
 20
516.2987212075837533
 30
0.0
 11
774.0537525684092088
 21
516.2987212075837533
 31
0.0
  0
LINE
  5
10A
100
AcDbEntity
100
AcDbLine
  8
PARETS
 62
256
370
-1
  6
ByLayer
 10
1074.0537525684092088
 20
291.2987212075846628
 30
0.0
 11
1074.0537525684092088
 21
96.2987212075847197
 31
0.0
  0
LINE
  5
10B
100
AcDbEntity
100
AcDbLine
  8
PARETS
 62
256
370
-1
  6
ByLayer
 10
938.0537525684093225
 20
691.2987212075837533
 30
0.0
 11
938.0537525684093225
 21
741.2987212075837533
 31
0.0
  0
LINE
  5
10C
100
AcDbEntity
100
AcDbLine
  8
PARETS
 62
256
370
-1
  6
ByLayer
 10
980.0537525684090951
 20
550.2987212075847765
 30
0.0
 11
1038.0537525684103457
 21
550.2987212075847765
 31
0.0
  0
LINE
  5
10D
100
AcDbEntity
100
AcDbLine
  8
PARETS
 62
256
370
-1
  6
ByLayer
 10
980.0537525684090951
 20
550.2987212075837533
 30
0.0
 11
980.0537525684090951
 21
546.2987212075845491
 31
0.0
  0
LINE
  5
10E
100
AcDbEntity
100
AcDbLine
  8
PARETS
 62
256
370
-1
  6
ByLayer
 10
1038.0537525684092088
 20
546.2987212075845491
 30
0.0
 11
1038.0537525684092088
 21
550.2987212075837533
 31
0.0
  0
LINE
  5
10F
100
AcDbEntity
100
AcDbLine
  8
PARETS
 62
256
370
-1
  6
ByLayer
 10
1034.0537525684092088
 20
546.2987212075845491
 30
0.0
 11
1104.0537525684092088
 21
546.2987212075845491
 31
0.0
  0
LINE
  5
110
100
AcDbEntity
100
AcDbLine
  8
PARETS
 62
256
370
-1
  6
ByLayer
 10
0.0537525684100766
 20
475.2987212075835828
 30
0.0
 11
0.053752568410343
 21
377.2987212075837533
 31
0.0
  0
LINE
  5
111
100
AcDbEntity
100
AcDbLine
  8
PARETS
 62
256
370
-1
  6
ByLayer
 10
0.0537525684099878
 20
475.2987212075835828
 30
0.0
 11
4.0537525684100801
 21
475.2987212075835828
 31
0.0
  0
LINE
  5
112
100
AcDbEntity
100
AcDbLine
  8
PARETS
 62
256
370
-1
  6
ByLayer
 10
4.053752568410169
 20
377.2987212075837533
 30
0.0
 11
0.0537525684101654
 21
377.2987212075837533
 31
0.0
  0
LINE
  5
113
100
AcDbEntity
100
AcDbLine
  8
PARETS
 62
256
370
-1
  6
ByLayer
 10
4.053752568410169
 20
381.2987212075836396
 30
0.0
 11
4.0537525684108795
 21
11.2987212075845793
 31
0.0
  0
LINE
  5
114
100
AcDbEntity
100
AcDbLine
  8
PARETS
 62
256
370
-1
  6
CONTINUOUS
 10
182.6809565420093406
 20
424.2987212075836396
 30
0.0
 11
236.8927990747835679
 21
512.7720605587054479
 31
0.0
  0
LINE
  5
115
100
AcDbEntity
100
AcDbLine
  8
PARETS
 62
256
370
-1
  6
ByLayer
 10
179.0537525684092941
 20
431.2987212075836396
 30
0.0
 11
119.0537525684094078
 21
431.2987212075836396
 31
0.0
  0
LINE
  5
116
100
AcDbEntity
100
AcDbLine
  8
PARETS
 62
256
370
-1
  6
CONTINUOUS
 10
336.4752627932217024
 20
378.7987212075846628
 30
0.0
 11
70.0692406256207079
 21
378.7987212075846628
 31
0.0
  0
LINE
  5
117
100
AcDbEntity
100
AcDbLine
  8
PARETS
 62
256
370
-1
  6
CONTINUOUS
 10
75.0692406256335687
 20
373.7987212075666434
 30
0.0
 11
75.0692406256335687
 21
478.7987212076097308
 31
0.0
  0
LINE
  5
118
100
AcDbEntity
100
AcDbLine
  8
PARETS
 62
256
370
-1
  6
CONTINUOUS
 10
205.0955333414747201
 20
473.7987212075836965
 30
0.0
 11
70.0692406256241753
 21
473.7987212075836965
 31
0.0
  0
LINE
  5
119
100
AcDbEntity
100
AcDbLine
  8
PARETS
 62
256
370
-1
  6
CONTINUOUS
 10
205.0955333414747201
 20
473.7987212075836965
 30
0.0
 11
183.1270530736528315
 21
486.4822292038987825
 31
0.0
  0
LINE
  5
11A
100
AcDbEntity
100
AcDbLine
  8
PARETS
 62
256
370
-1
  6
CONTINUOUS
 10
187.4571800925904483
 20
489.1535285069775796
 30
0.0
 11
187.4571800925904483
 21
458.6152132112696904
 31
0.0
  0
LINE
  5
11B
100
AcDbEntity
100
AcDbLine
  8
PARETS
 62
256
370
-1
  6
CONTINUOUS
 10
205.0955333414747201
 20
473.798721207584606
 30
0.0
 11
183.1270530736680087
 21
461.1152132112786148
 31
0.0
  0
LINE
  5
11C
100
AcDbEntity
100
AcDbLine
  8
PARETS
 62
256
370
-1
  6
CONTINUOUS
 10
336.4752627932217024
 20
382.798721207584606
 30
0.0
 11
314.8301781551411409
 21
382.798721207584606
 31
0.0
  0
LINE
  5
11D
100
AcDbEntity
100
AcDbLine
  8
PARETS
 62
256
370
-1
  6
CONTINUOUS
 10
336.4752627932217024
 20
374.7987212075847765
 30
0.0
 11
314.8301781551411409
 21
374.7987212075847765
 31
0.0
  0
LINE
  5
11E
100
AcDbEntity
100
AcDbLine
  8
PARETS
 62
256
370
-1
  6
ByLayer
 10
1006.1986110224323738
 20
41.2987212075835828
 30
0.0
 11
1006.1986110224323738
 21
11.2987212075845793
 31
0.0
  0
POINT
  5
11F
100
AcDbEntity
100
AcDbPoint
  8
TEXT
 62
256
370
-1
  6
CONTINUOUS
 10
124.0537525684094788
 20
811.2987212075847765
 30
0.0
  0
MTEXT
  5
120
100
AcDbEntity
100
AcDbMText
  8
TEXT
 62
256
370
-1
  6
CONTINUOUS
 10
110.7871999708323045
 20
781.6989521959584408
 30
0.0
 40
15.0
 41
10000.0
 71
7
 72
2
  1
1
  7
STANDARD
 50
0.0
 73
0
 44
1.0
  0
POINT
  5
121
100
AcDbEntity
100
AcDbPoint
  8
TEXT
 62
256
370
-1
  6
CONTINUOUS
 10
209.0537525684091804
 20
41.2987212075846486
 30
0.0
  0
MTEXT
  5
122
100
AcDbEntity
100
AcDbMText
  8
TEXT
 62
256
370
-1
  6
CONTINUOUS
 10
220.1016569346637368
 20
53.1464710841966834
 30
0.0
 40
15.0
 41
10000.0
 71
7
 72
2
  1
2
  7
STANDARD
 50
0.0
 73
0
 44
1.0
  0
POINT
  5
123
100
AcDbEntity
100
AcDbPoint
  8
TEXT
 62
256
370
-1
  6
CONTINUOUS
 10
1006.1986110224323738
 20
41.2987212075835828
 30
0.0
  0
POINT
  5
124
100
AcDbEntity
100
AcDbPoint
  8
TEXT
 62
256
370
-1
  6
CONTINUOUS
 10
789.0537525684092088
 20
291.2987212075835828
 30
0.0
  0
POINT
  5
125
100
AcDbEntity
100
AcDbPoint
  8
TEXT
 62
256
370
-1
  6
CONTINUOUS
 10
879.0537525684093225
 20
501.2987212075835828
 30
0.0
  0
POINT
  5
126
100
AcDbEntity
100
AcDbPoint
  8
TEXT
 62
256
370
-1
  6
CONTINUOUS
 10
774.0537525684092088
 20
491.2987212075844923
 30
0.0
  0
POINT
  5
127
100
AcDbEntity
100
AcDbPoint
  8
TEXT
 62
256
370
-1
  6
CONTINUOUS
 10
594.0537525684100046
 20
531.2987212075846628
 30
0.0
  0
POINT
  5
128
100
AcDbEntity
100
AcDbPoint
  8
TEXT
 62
256
370
-1
  6
CONTINUOUS
 10
554.0537525684095499
 20
556.2987212075846628
 30
0.0
  0
MTEXT
  5
129
100
AcDbEntity
100
AcDbMText
  8
TEXT
 62
256
370
-1
  6
CONTINUOUS
 10
609.367195111162232
 20
542.0325840070546519
 30
0.0
 40
15.0
 41
10000.0
 71
7
 72
2
  1
5
  7
STANDARD
 50
0.0
 73
0
 44
1.0
  0
MTEXT
  5
12A
100
AcDbEntity
100
AcDbMText
  8
TEXT
 62
256
370
-1
  6
CONTINUOUS
 10
781.786811867488268
 20
479.7829199027556228
 30
0.0
 40
15.0
 41
10000.0
 71
7
 72
2
  1
6
  7
STANDARD
 50
270.0
 73
0
 44
1.0
  0
MTEXT
  5
12B
100
AcDbEntity
100
AcDbMText
  8
TEXT
 62
256
370
-1
  6
CONTINUOUS
 10
890.5739608611653466
 20
484.5225497906125156
 30
0.0
 40
15.0
 41
10000.0
 71
7
 72
2
  1
7
  7
STANDARD
 50
270.0
 73
0
 44
1.0
  0
MTEXT
  5
12C
100
AcDbEntity
100
AcDbMText
  8
TEXT
 62
256
370
-1
  6
CONTINUOUS
 10
811.1840026456770829
 20
279.224248084048611
 30
0.0
 40
15.0
 41
10000.0
 71
7
 72
2
  1
8
  7
STANDARD
 50
180.0
 73
0
 44
1.0
  0
MTEXT
  5
12D
100
AcDbEntity
100
AcDbMText
  8
TEXT
 62
256
370
-1
  6
CONTINUOUS
 10
547.7515426154301394
 20
574.1944432983327715
 30
0.0
 40
15.0
 41
10000.0
 71
7
 72
2
  1
4
  7
STANDARD
 50
90.0
 73
0
 44
1.0
  0
LINE
  5
12E
100
AcDbEntity
100
AcDbLine
  8
PARETS
 62
256
370
-1
  6
ByLayer
 10
879.0537525684093225
 20
501.2987212075835828
 30
0.0
 11
879.0537525684093225
 21
516.2987212075837533
 31
0.0
  0
LINE
  5
12F
100
AcDbEntity
100
AcDbLine
  8
PARETS
 62
256
370
-1
  6
ByLayer
 10
879.0537525684093225
 20
516.2987212075837533
 30
0.0
 11
904.0537525684093225
 21
516.2987212075837533
 31
0.0
  0
LINE
  5
130
100
AcDbEntity
100
AcDbLine
  8
PARETS
 62
256
370
-1
  6
ByLayer
 10
904.0537525684093225
 20
516.2987212075837533
 30
0.0
 11
1074.0537525684092088
 21
516.2987212075837533
 31
0.0
  0
LINE
  5
131
100
AcDbEntity
100
AcDbLine
  8
PARETS
 62
256
370
-1
  6
ByLayer
 10
1074.0537525684092088
 20
516.2987212075837533
 30
0.0
 11
1074.0537525684092088
 21
301.2987212075846628
 31
0.0
  0
LINE
  5
132
100
AcDbEntity
100
AcDbLine
  8
PARETS
 62
256
370
-1
  6
ByLayer
 10
1074.0537525684092088
 20
301.2987212075846628
 30
0.0
 11
879.0537525684093225
 21
301.2987212075837533
 31
0.0
  0
LINE
  5
133
100
AcDbEntity
100
AcDbLine
  8
PARETS
 62
256
370
-1
  6
ByLayer
 10
879.0537525684093225
 20
301.2987212075837533
 30
0.0
 11
879.0537525684103457
 21
441.2987212075835828
 31
0.0
  0
LINE
  5
134
100
AcDbEntity
100
AcDbLine
  8
PARETS
 62
256
370
-1
  6
CONTINUOUS
 10
329.0537525684092657
 20
431.2987212075836396
 30
0.0
 11
329.0537525684092657
 21
516.2987212075844354
 31
0.0
  0
LINE
  5
135
100
AcDbEntity
100
AcDbLine
  8
PARETS
 62
256
370
-1
  6
ByLayer
 10
299.0537525684092657
 20
336.2987212075836965
 30
0.0
 11
299.0537525684092657
 21
421.2987212075847197
 31
0.0
  0
LINE
  5
136
100
AcDbEntity
100
AcDbLine
  8
PARETS
 62
256
370
-1
  6
CONTINUOUS
 10
299.0537525684092657
 20
431.2987212075836396
 30
0.0
 11
299.0537525684092657
 21
516.2987212075844354
 31
0.0
  0
LINE
  5
137
100
AcDbEntity
100
AcDbLine
  8
PARETS
 62
256
370
-1
  6
ByLayer
 10
269.0537525684093794
 20
336.2987212075836965
 30
0.0
 11
269.0537525684093794
 21
421.2987212075847197
 31
0.0
  0
LINE
  5
138
100
AcDbEntity
100
AcDbLine
  8
PARETS
 62
256
370
-1
  6
CONTINUOUS
 10
269.0537525684093794
 20
431.2987212075836396
 30
0.0
 11
269.0537525684093794
 21
516.2987212075844354
 31
0.0
  0
LINE
  5
139
100
AcDbEntity
100
AcDbLine
  8
PARETS
 62
256
370
-1
  6
ByLayer
 10
239.0537525684093509
 20
336.2987212075836965
 30
0.0
 11
239.0537525684093509
 21
421.2987212075847197
 31
0.0
  0
LINE
  5
13A
100
AcDbEntity
100
AcDbLine
  8
PARETS
 62
256
370
-1
  6
CONTINUOUS
 10
239.0537525684093509
 20
431.2987212075836396
 30
0.0
 11
239.0537525684093509
 21
516.2987212075844354
 31
0.0
  0
LINE
  5
13B
100
AcDbEntity
100
AcDbLine
  8
PARETS
 62
256
370
-1
  6
ByLayer
 10
209.0537525684092657
 20
336.2987212075836965
 30
0.0
 11
209.0537525684092657
 21
421.2987212075847197
 31
0.0
  0
LINE
  5
13C
100
AcDbEntity
100
AcDbLine
  8
PARETS
 62
256
370
-1
  6
CONTINUOUS
 10
209.0537525684092657
 20
431.2987212075836396
 30
0.0
 11
209.0537525684092657
 21
467.3389357339765979
 31
0.0
  0
LINE
  5
13D
100
AcDbEntity
100
AcDbLine
  8
PARETS
 62
256
370
-1
  6
ByLayer
 10
179.0537525684092941
 20
336.2987212075836965
 30
0.0
 11
179.0537525684092941
 21
421.2987212075847197
 31
0.0
  0
LINE
  5
13E
100
AcDbEntity
100
AcDbLine
  8
PARETS
 62
256
370
-1
  6
ByLayer
 10
179.0537525684092941
 20
431.2987212075836396
 30
0.0
 11
179.0537525684092941
 21
516.2987212075844354
 31
0.0
  0
LINE
  5
13F
100
AcDbEntity
100
AcDbLine
  8
PARETS
 62
256
370
-1
  6
ByLayer
 10
149.0537525684093225
 20
336.2987212075836965
 30
0.0
 11
149.0537525684093225
 21
421.2987212075847197
 31
0.0
  0
LINE
  5
140
100
AcDbEntity
100
AcDbLine
  8
PARETS
 62
256
370
-1
  6
ByLayer
 10
149.0537525684093225
 20
431.2987212075836396
 30
0.0
 11
149.0537525684093225
 21
516.2987212075844354
 31
0.0
  0
LINE
  5
141
100
AcDbEntity
100
AcDbLine
  8
PARETS
 62
256
370
-1
  6
ByLayer
 10
119.0537525684094078
 20
336.2987212075836965
 30
0.0
 11
119.0537525684094078
 21
421.2987212075847197
 31
0.0
  0
LINE
  5
142
100
AcDbEntity
100
AcDbLine
  8
PARETS
 62
256
370
-1
  6
ByLayer
 10
119.0537525684094078
 20
431.2987212075836396
 30
0.0
 11
119.0537525684094078
 21
516.2987212075844354
 31
0.0
  0
LINE
  5
143
100
AcDbEntity
100
AcDbLine
  8
PARETS
 62
256
370
-1
  6
ByLayer
 10
209.0537525684092657
 20
480.2585066811917045
 30
0.0
 11
209.0537525684092657
 21
516.2987212075844354
 31
0.0
  0
LINE
  5
144
100
AcDbEntity
100
AcDbLine
  8
PARETS
 62
256
370
-1
  6
ByLayer
 10
299.0537525684097204
 20
293.2987212075837533
 30
0.0
 11
359.0537525684094362
 21
293.2987212075837533
 31
0.0
  0
LINE
  5
145
100
AcDbEntity
100
AcDbLine
  8
PARETS
 62
256
370
-1
  6
ByLayer
 10
299.0537525684095499
 20
179.298721207583668
 30
0.0
 11
359.0537525684094362
 21
179.298721207583668
 31
0.0
  0
ARC
  5
146
100
AcDbEntity
  8
PARETS
 62
256
370
-1
  6
ByLayer
100
AcDbCircle
 10
319.0537525684093794
 20
346.2987212075836965
 30
0.0
 40
10.0
100
AcDbArc
 50
269.9999999999997726
 51
0.0
  0
LWPOLYLINE
  5
147
  8
TEXT
 62
256
370
-1
  6
CONTINUOUS
100
AcDbEntity
100
AcDbPolyline
 90
3
 70
0
 10
872.2911864609701524
 20
464.3805538055267448
 10
883.8480654952621762
 20
464.3805538055267448
 10
897.055927248738044
 20
464.3805538055267448
  0
MTEXT
  5
148
100
AcDbEntity
100
AcDbMText
  8
TEXT
 62
256
370
-1
  6
CONTINUOUS
 10
305.7447321485544194
 20
880.1154754581845054
 30
0.0
 40
15.0
 41
10000.0
 71
7
 72
2
  1
A
  7
STANDARD
 50
0.0
 73
0
 44
1.0
  0
MTEXT
  5
149
100
AcDbEntity
100
AcDbMText
  8
TEXT
 62
256
370
-1
  6
CONTINUOUS
 10
512.9313769133435699
 20
876.756517665561546
 30
0.0
 40
15.0
 41
10000.0
 71
7
 72
2
  1
B
  7
STANDARD
 50
0.0
 73
0
 44
1.0
  0
LINE
  5
14A
100
AcDbEntity
100
AcDbLine
  8
FINESTRA
 62
256
370
-1
  6
ByLayer
 10
393.185229135769589
 20
909.8102981177657966
 30
0.0
 11
453.1852291357695321
 21
909.8102981177657966
 31
0.0
  0
LINE
  5
14B
100
AcDbEntity
100
AcDbLine
  8
FINESTRA
 62
256
370
-1
  6
ByLayer
 10
383.1852291357695321
 20
913.8102981177656829
 30
0.0
 11
383.1852291357695321
 21
905.8102981177654556
 31
0.0
  0
LINE
  5
14C
100
AcDbEntity
100
AcDbLine
  8
FINESTRA
 62
256
370
-1
  6
ByLayer
 10
393.185229135769589
 20
913.8102981177656829
 30
0.0
 11
393.185229135769589
 21
905.8102981177654556
 31
0.0
  0
LINE
  5
14D
100
AcDbEntity
100
AcDbLine
  8
FINESTRA
 62
256
370
-1
  6
ByLayer
 10
388.185229135769589
 20
915.8102981177655693
 30
0.0
 11
388.185229135769589
 21
903.8102981177655693
 31
0.0
  0
LINE
  5
14E
100
AcDbEntity
100
AcDbLine
  8
FINESTRA
 62
256
370
-1
  6
ByLayer
 10
323.1852291357696458
 20
913.8102981177656829
 30
0.0
 11
323.1852291357696458
 21
905.8102981177654556
 31
0.0
  0
LINE
  5
14F
100
AcDbEntity
100
AcDbLine
  8
FINESTRA
 62
256
370
-1
  6
ByLayer
 10
453.1852291357695321
 20
905.8102981177654556
 30
0.0
 11
453.1852291357695321
 21
913.8102981177656829
 31
0.0
  0
LINE
  5
150
100
AcDbEntity
100
AcDbLine
  8
FINESTRA
 62
256
370
-1
  6
ByLayer
 10
323.1852291357696458
 20
909.8102981177657966
 30
0.0
 11
383.1852291357695321
 21
909.8102981177657966
 31
0.0
  0
LINE
  5
151
100
AcDbEntity
100
AcDbLine
  8
FINESTRA
 62
256
370
-1
  6
ByLayer
 10
318.1852291357696458
 20
913.8102981177656829
 30
0.0
 11
323.1852291357696458
 21
913.8102981177656829
 31
0.0
  0
LINE
  5
152
100
AcDbEntity
100
AcDbLine
  8
FINESTRA
 62
256
370
-1
  6
ByLayer
 10
318.1852291357696458
 20
905.8102981177654556
 30
0.0
 11
323.1852291357696458
 21
905.8102981177654556
 31
0.0
  0
LINE
  5
153
100
AcDbEntity
100
AcDbLine
  8
FINESTRA
 62
256
370
-1
  6
ByLayer
 10
458.185229135769589
 20
905.8102981177654556
 30
0.0
 11
453.1852291357698732
 21
905.8102981177654556
 31
0.0
  0
LINE
  5
154
100
AcDbEntity
100
AcDbLine
  8
FINESTRA
 62
256
370
-1
  6
ByLayer
 10
323.1852291357696458
 20
913.8102981177656829
 30
0.0
 11
383.1852291357695321
 21
913.8102981177656829
 31
0.0
  0
LINE
  5
155
100
AcDbEntity
100
AcDbLine
  8
FINESTRA
 62
256
370
-1
  6
ByLayer
 10
383.1852291357695321
 20
913.8102981177656829
 30
0.0
 11
393.185229135769589
 21
913.8102981177656829
 31
0.0
  0
LINE
  5
156
100
AcDbEntity
100
AcDbLine
  8
FINESTRA
 62
256
370
-1
  6
ByLayer
 10
393.185229135769589
 20
913.8102981177656829
 30
0.0
 11
453.1852291357695321
 21
913.8102981177656829
 31
0.0
  0
LINE
  5
157
100
AcDbEntity
100
AcDbLine
  8
FINESTRA
 62
256
370
-1
  6
ByLayer
 10
453.1852291357695321
 20
913.8102981177656829
 30
0.0
 11
458.185229135769589
 21
913.8102981177656829
 31
0.0
  0
LINE
  5
158
100
AcDbEntity
100
AcDbLine
  8
FINESTRA
 62
256
370
-1
  6
ByLayer
 10
323.1852291357696458
 20
905.8102981177654556
 30
0.0
 11
383.1852291357695321
 21
905.8102981177654556
 31
0.0
  0
LINE
  5
159
100
AcDbEntity
100
AcDbLine
  8
FINESTRA
 62
256
370
-1
  6
ByLayer
 10
383.1852291357695321
 20
905.8102981177654556
 30
0.0
 11
393.185229135769589
 21
905.8102981177654556
 31
0.0
  0
LINE
  5
15A
100
AcDbEntity
100
AcDbLine
  8
FINESTRA
 62
256
370
-1
  6
ByLayer
 10
393.185229135769589
 20
905.8102981177654556
 30
0.0
 11
458.185229135769589
 21
905.8102981177654556
 31
0.0
  0
LINE
  5
15B
100
AcDbEntity
100
AcDbLine
  8
FINESTRA
 62
256
370
-1
  6
ByLayer
 10
314.1852291357697595
 20
939.8102981177654556
 30
0.0
 11
314.1852291357696458
 21
935.8102981177644324
 31
0.0
  0
LINE
  5
15C
100
AcDbEntity
100
AcDbLine
  8
FINESTRA
 62
256
370
-1
  6
ByLayer
 10
462.1852291357695321
 20
935.8102981177655693
 30
0.0
 11
462.1852291357695321
 21
939.8102981177654556
 31
0.0
  0
LINE
  5
15D
100
AcDbEntity
100
AcDbLine
  8
FINESTRA
 62
256
370
-1
  6
ByLayer
 10
314.1852291357697595
 20
939.8102981177654556
 30
0.0
 11
462.1852291357695321
 21
939.8102981177654556
 31
0.0
  0
POINT
  5
15E
100
AcDbEntity
100
AcDbPoint
  8
TEXT
 62
256
370
-1
  6
CONTINUOUS
 10
1017.9945698043674156
 20
301.2987211023626628
 30
0.0
  0
MTEXT
  5
15F
100
AcDbEntity
100
AcDbMText
  8
TEXT
 62
256
370
-1
  6
ByLayer
 10
1019.3319145689733887
 20
52.119159959409572
 30
0.0
 40
15.0
 41
10000.0
 71
7
 72
2
  1
3
  7
STANDARD
 50
0.0
 73
0
 44
1.0
  0
LINE
  5
160
100
AcDbEntity
100
AcDbLine
  8
0
 62
256
370
-1
  6
ByLayer
 10
533.2209615086479744
 20
891.4586785829250175
 30
0.0
 11
536.2209615086479744
 21
891.4586785829250175
 31
0.0
  0
LINE
  5
161
100
AcDbEntity
100
AcDbLine
  8
0
 62
256
370
-1
  6
ByLayer
 10
536.2209615086479744
 20
891.4586785829250175
 30
0.0
 11
536.2209615086479744
 21
951.4586785829252449
 31
0.0
  0
LINE
  5
162
100
AcDbEntity
100
AcDbLine
  8
0
 62
256
370
-1
  6
ByLayer
 10
536.2209615086479744
 20
951.4586785829252449
 30
0.0
 11
533.2209615086479744
 21
951.4586785829252449
 31
0.0
  0
LINE
  5
163
100
AcDbEntity
100
AcDbLine
  8
0
 62
256
370
-1
  6
ByLayer
 10
533.2209615086479744
 20
951.4586785829252449
 30
0.0
 11
533.2209615086479744
 21
891.4586785829250175
 31
0.0
  0
LINE
  5
164
100
AcDbEntity
100
AcDbLine
  8
0
 62
256
370
-1
  6
ByLayer
 10
536.2209615086479744
 20
951.3836316492370315
 30
0.0
 11
593.2209615086479744
 21
891.4586785829250175
 31
0.0
  0
LINE
  5
165
100
AcDbEntity
100
AcDbLine
  8
TEXT
 62
256
370
-1
  6
ByLayer
 10
540.723285806875765
 20
593.9592395452916662
 30
0.0
 11
550.2786172748270701
 21
596.3623128695030573
 31
0.0
  0
LINE
  5
166
100
AcDbEntity
100
AcDbLine
  8
TEXT
 62
256
370
-1
  6
ByLayer
 10
540.723285806875765
 20
593.9592395452916662
 30
0.0
 11
550.2786172748270701
 21
591.5561662210802751
 31
0.0
  0
LINE
  5
167
100
AcDbEntity
100
AcDbLine
  8
TEXT
 62
256
370
-1
  6
ByLayer
 10
550.2786172748270701
 20
596.3623128695030573
 30
0.0
 11
550.2786172748270701
 21
591.5561662210802751
 31
0.0
  0
LINE
  5
168
100
AcDbEntity
100
AcDbLine
  8
TEXT
 62
256
370
-1
  6
ByLayer
 10
550.2786172748270701
 20
593.9592395452916662
 30
0.0
 11
567.329871293716792
 21
593.9592395452916662
 31
0.0
  0
LINE
  5
169
100
AcDbEntity
100
AcDbLine
  8
TEXT
 62
256
370
-1
  6
ByLayer
 10
635.2160174733543272
 20
548.7991683147242838
 30
0.0
 11
637.6190907975657183
 21
539.2438368467729788
 31
0.0
  0
LINE
  5
16A
100
AcDbEntity
100
AcDbLine
  8
TEXT
 62
256
370
-1
  6
ByLayer
 10
635.2160174733543272
 20
548.7991683147242838
 30
0.0
 11
632.8129441491429361
 21
539.2438368467729788
 31
0.0
  0
LINE
  5
16B
100
AcDbEntity
100
AcDbLine
  8
TEXT
 62
256
370
-1
  6
ByLayer
 10
637.6190907975657183
 20
539.2438368467729788
 30
0.0
 11
632.8129441491429361
 21
539.2438368467729788
 31
0.0
  0
LINE
  5
16C
100
AcDbEntity
100
AcDbLine
  8
TEXT
 62
256
370
-1
  6
ByLayer
 10
635.2160174733543272
 20
539.2438368467729788
 30
0.0
 11
635.2160174733543272
 21
522.1925828278834842
 31
0.0
  0
LINE
  5
16D
100
AcDbEntity
100
AcDbLine
  8
TEXT
 62
256
370
-1
  6
ByLayer
 10
793.3096714743353459
 20
453.4162034737016143
 30
0.0
 11
783.7543400063840409
 21
451.0131301494902232
 31
0.0
  0
LINE
  5
16E
100
AcDbEntity
100
AcDbLine
  8
TEXT
 62
256
370
-1
  6
ByLayer
 10
793.3096714743353459
 20
453.4162034737016143
 30
0.0
 11
783.7543400063840409
 21
455.8192767979130053
 31
0.0
  0
LINE
  5
16F
100
AcDbEntity
100
AcDbLine
  8
TEXT
 62
256
370
-1
  6
ByLayer
 10
783.7543400063840409
 20
451.0131301494902232
 30
0.0
 11
783.7543400063840409
 21
455.8192767979130053
 31
0.0
  0
LINE
  5
170
100
AcDbEntity
100
AcDbLine
  8
TEXT
 62
256
370
-1
  6
ByLayer
 10
783.7543400063840409
 20
453.4162034737016143
 30
0.0
 11
766.7030859874943189
 21
453.4162034737016143
 31
0.0
  0
LINE
  5
171
100
AcDbEntity
100
AcDbLine
  8
TEXT
 62
256
370
-1
  6
ByLayer
 10
898.8977719478114068
 20
464.3805538055267448
 30
0.0
 11
889.3424404798601017
 21
461.9774804813153537
 31
0.0
  0
LINE
  5
172
100
AcDbEntity
100
AcDbLine
  8
TEXT
 62
256
370
-1
  6
ByLayer
 10
898.8977719478114068
 20
464.3805538055267448
 30
0.0
 11
889.3424404798601017
 21
466.7836271297381359
 31
0.0
  0
LINE
  5
173
100
AcDbEntity
100
AcDbLine
  8
TEXT
 62
256
370
-1
  6
ByLayer
 10
889.3424404798601017
 20
461.9774804813153537
 30
0.0
 11
889.3424404798601017
 21
466.7836271297381359
 31
0.0
  0
LINE
  5
174
100
AcDbEntity
100
AcDbLine
  8
TEXT
 62
256
370
-1
  6
ByLayer
 10
889.3424404798601017
 20
464.3805538055267448
 30
0.0
 11
872.2911864609701524
 21
464.3805538055267448
 31
0.0
  0
LINE
  5
175
100
AcDbEntity
100
AcDbLine
  8
TEXT
 62
256
370
-1
  6
ByLayer
 10
823.4815928458732515
 20
267.3300935118377311
 30
0.0
 11
821.0785195216618604
 21
276.885424979789093
 31
0.0
  0
LINE
  5
176
100
AcDbEntity
100
AcDbLine
  8
TEXT
 62
256
370
-1
  6
ByLayer
 10
823.4815928458732515
 20
267.3300935118377311
 30
0.0
 11
825.8846661700846425
 21
276.885424979789093
 31
0.0
  0
LINE
  5
177
100
AcDbEntity
100
AcDbLine
  8
TEXT
 62
256
370
-1
  6
ByLayer
 10
821.0785195216618604
 20
276.885424979789093
 30
0.0
 11
825.8846661700846425
 21
276.885424979789093
 31
0.0
  0
LINE
  5
178
100
AcDbEntity
100
AcDbLine
  8
TEXT
 62
256
370
-1
  6
ByLayer
 10
823.4815928458732515
 20
276.885424979789093
 30
0.0
 11
823.4815928458732515
 21
293.936678998678758
 31
0.0
  0
LINE
  5
179
100
AcDbEntity
100
AcDbLine
  8
PARETS
 62
256
370
-1
  6
ByLayer
 10
774.0537525684092088
 20
41.2987212075846486
 30
0.0
 11
866.0537525684094362
 21
41.2987212075846486
 31
0.0
  0
LINE
  5
17A
100
AcDbEntity
100
AcDbLine
  8
PARETS
 62
256
370
-1
  6
ByLayer
 10
789.0537525684092088
 20
11.2987212075845793
 30
0.0
 11
866.0537525684094362
 21
11.2987212075845793
 31
0.0
  0
LINE
  5
17B
100
AcDbEntity
100
AcDbLine
  8
PARETS
 62
256
370
-1
  6
ByLayer
 10
866.0537525684094362
 20
11.2987212075845793
 30
0.0
 11
866.0537525684094362
 21
41.2987212075846486
 31
0.0
  0
MTEXT
  5
17C
100
AcDbEntity
100
AcDbMText
  8
TEXT
 62
256
370
-1
  6
CONTINUOUS
 10
1010.8595089347281828
 20
273.3389901447376928
 30
0.0
 40
15.0
 41
10000.0
 71
7
 72
2
  1
9
  7
STANDARD
 50
0.0
 73
0
 44
1.0
  0
ENDSEC
  0
SECTION
  2
OBJECTS
  0
DICTIONARY
  5
C
100
AcDbDictionary
280
0
281
1
  3
ACAD_GROUP
350
D
  3
ACAD_LAYOUT
350
1A
  3
ACAD_MLINESTYLE
350
17
  3
ACAD_PLOTSETTINGS
350
19
  3
ACAD_PLOTSTYLENAME
350
E
  3
AcDbVariableDictionary
350
17D
  0
DICTIONARY
  5
D
100
AcDbDictionary
280
0
281
1
  0
ACDBDICTIONARYWDFLT
  5
E
100
AcDbDictionary
281
1
  3
Normal
350
F
100
AcDbDictionaryWithDefault
340
F
  0
ACDBPLACEHOLDER
  5
F
  0
DICTIONARY
  5
17
100
AcDbDictionary
280
0
281
1
  3
Standard
350
18
  0
MLINESTYLE
  5
18
100
AcDbMlineStyle
  2
STANDARD
 70
0
  3

 62
256
 51
90.0
 52
90.0
 71
2
 49
0.5
 62
256
  6
BYLAYER
 49
-0.5
 62
256
  6
BYLAYER
  0
DICTIONARY
  5
19
100
AcDbDictionary
280
0
281
1
  0
DICTIONARY
  5
1A
100
AcDbDictionary
281
1
  3
Layout1
350
1E
  3
Layout2
350
26
  3
Model
350
22
  0
LAYOUT
  5
1E
100
AcDbPlotSettings
  1

  2
C:\Program Files\AutoCAD 2002\plotters\DWF ePlot (optimized for plotting).pc3
  4

  6

 40
0.0
 41
0.0
 42
0.0
 43
0.0
 44
0.0
 45
0.0
 46
0.0
 47
0.0
 48
0.0
 49
0.0
140
0.0
141
0.0
142
1.0
143
1.0
 70
688
 72
0
 73
0
 74
5
  7

 75
16
147
1.0
148
0.0
149
0.0
100
AcDbLayout
  1
Layout1
 70
1
 71
1
 10
0.0
 20
0.0
 11
420.0
 21
297.0
 12
0.0
 22
0.0
 32
0.0
 14
100000000000000000000.0
 24
100000000000000000000.0
 34
100000000000000000000.0
 15
-100000000000000000000.0
 25
-100000000000000000000.0
 35
-100000000000000000000.0
146
0.0
 13
0.0
 23
0.0
 33
0.0
 16
1.0
 26
0.0
 36
0.0
 17
0.0
 27
1.0
 37
0.0
 76
0
330
1B
  0
LAYOUT
  5
22
100
AcDbPlotSettings
  1

  2
C:\Program Files\AutoCAD 2002\plotters\DWF ePlot (optimized for plotting).pc3
  4

  6

 40
0.0
 41
0.0
 42
0.0
 43
0.0
 44
0.0
 45
0.0
 46
0.0
 47
0.0
 48
0.0
 49
0.0
140
0.0
141
0.0
142
1.0
143
1.0
 70
1712
 72
0
 73
0
 74
0
  7

 75
0
147
1.0
148
0.0
149
0.0
100
AcDbLayout
  1
Model
 70
1
 71
0
 10
0.0
 20
0.0
 11
12.0
 21
9.0
 12
0.0
 22
0.0
 32
0.0
 14
0.0
 24
0.0
 34
0.0
 15
0.0
 25
0.0
 35
0.0
146
0.0
 13
0.0
 23
0.0
 33
0.0
 16
1.0
 26
0.0
 36
0.0
 17
0.0
 27
1.0
 37
0.0
 76
0
330
1F
  0
LAYOUT
  5
26
100
AcDbPlotSettings
  1

  2
C:\Program Files\AutoCAD 2002\plotters\DWF ePlot (optimized for plotting).pc3
  4

  6

 40
0.0
 41
0.0
 42
0.0
 43
0.0
 44
0.0
 45
0.0
 46
0.0
 47
0.0
 48
0.0
 49
0.0
140
0.0
141
0.0
142
1.0
143
1.0
 70
688
 72
0
 73
0
 74
5
  7

 75
16
147
1.0
148
0.0
149
0.0
100
AcDbLayout
  1
Layout2
 70
1
 71
2
 10
0.0
 20
0.0
 11
12.0
 21
9.0
 12
0.0
 22
0.0
 32
0.0
 14
0.0
 24
0.0
 34
0.0
 15
0.0
 25
0.0
 35
0.0
146
0.0
 13
0.0
 23
0.0
 33
0.0
 16
1.0
 26
0.0
 36
0.0
 17
0.0
 27
1.0
 37
0.0
 76
0
330
23
  0
DICTIONARY
  5
17D
100
AcDbDictionary
281
1
  3
DIMASSOC
350
17F
  3
HIDETEXT
350
17E
  0
DICTIONARYVAR
  5
17E
100
DictionaryVariables
280
0
  1
2
  0
DICTIONARYVAR
  5
17F
100
DictionaryVariables
280
0
  1
1
  0
ENDSEC
  0
EOF
