999
dxflib 2.0.4.8
  0
SECTION
  2
HEADER
  9
$ACADVER
  1
AC1015
  9
$HANDSEED
  5
FFFF
  9
$USERR4
 40
0.0
  9
$DIMTDEC
 70
2
  9
$DIMTAD
 70
0
  9
$CMLSTYLE
  2
Standard
  9
$VISRETAIN
 70
1
  9
$TILEMODE
 70
1
  9
$SHADEDIF
 70
70
  9
$USERR5
 40
0.0
  9
$UCSYDIR
 10
0.0
 20
1.0
 30
0.0
  9
$CHAMFERA
 40
0.0
  9
$MENU
  1
acad
  9
$DIMALTZ
 70
0
  9
$CLAYER
  8
RESPOSTA
  9
$OLESTARTUP
290
0
  9
$UCSXDIR
 10
1.0
 20
0.0
 30
0.0
  9
$CHAMFERB
 40
0.0
  9
$DIMADEC
 70
0
  9
$DIMUPT
 70
0
  9
$DIMASZ
 40
3.5
  9
$TRACEWID
 40
1.0
  9
$REGENMODE
 70
1
  9
$ORTHOMODE
 70
0
  9
$EXTMIN
 10
0.0
 20
-0.000000000000001
 30
0.0
  9
$ENDCAPS
280
0
  9
$MEASUREMENT
 70
0
  9
$CMLJUST
 70
0
  9
$PUCSYDIR
 10
0.0
 20
1.0
 30
0.0
  9
$ANGBASE
 50
0.0
  9
$USRTIMER
 70
1
  9
$CHAMFERC
 40
0.0
  9
$SKETCHINC
 40
1.0
  9
$DIMGAP
 40
0.09
  9
$DIMTFAC
 40
1.0
  9
$DIMSAH
 70
0
  9
$DIMALT
 70
0
  9
$DIMSHO
 70
0
  9
$VERSIONGUID
  2
{0CCE13D9-4090-4A62-B6A1-25F00A419D61}
  9
$LWDISPLAY
290
0
  9
$PUCSXDIR
 10
1.0
 20
0.0
 30
0.0
  9
$SURFTYPE
 70
6
  9
$SPLFRAME
 70
0
  9
$CHAMFERD
 40
0.0
  9
$DIMALTRND
 40
0.0
  9
$DIMALTTD
 70
2
  9
$DIMTSZ
 40
0.0
  9
$LIMMIN
 10
0.0
 20
0.0
  9
$CELWEIGHT
370
-1
  9
$SURFTAB1
 70
6
  9
$SPLINESEGS
 70
8
  9
$AUPREC
 70
0
  9
$LUNITS
 70
2
  9
$DWGCODEPAGE
  3
ANSI_1252
  9
$PSTYLEMODE
290
1
  9
$UNITMODE
 70
0
  9
$USERI1
 70
0
  9
$UCSORTHOVIEW
 70
0
  9
$SURFTAB2
 70
6
  9
$TDUUPDATE
 40
2454221.3428340167738497
  9
$TDUCREATE
 40
2451876.9613692131824791
  9
$SKPOLY
 70
0
  9
$ELEVATION
 40
0.0
  9
$DIMDSEP
 70
46
  9
$DIMCEN
 40
1.5
  9
$DIMRND
 40
0.0
  9
$INSBASE
 10
0.0
 20
184.0
 30
0.0
  9
$INSUNITS
 70
0
  9
$USERI2
 70
0
  9
$UCSORGRIGHT
 10
0.0
 20
0.0
 30
0.0
  9
$UCSORG
 10
0.0
 20
0.0
 30
0.0
  9
$PELEVATION
 40
0.0
  9
$DIMEXO
 40
0.1
  9
$TEXTSIZE
 40
4.5
  9
$FILLMODE
 70
1
  9
$EXTMAX
 10
253.0
 20
182.000000000000199
 30
0.0
  9
$JOINSTYLE
280
0
  9
$USERI3
 70
0
  9
$PUCSORGBOTTOM
 10
0.0
 20
0.0
 30
0.0
  9
$SURFU
 70
6
  9
$ANGDIR
 70
0
  9
$TDUSRTIMER
 40
0.0004002199
  9
$DIMLWD
 70
-2
  9
$DIMTZIN
 70
0
  9
$DIMTOLJ
 70
1
  9
$DIMZIN
 70
0
  9
$DIMDLE
 40
0.0
  9
$DIMSCALE
 40
1.0
  9
$WORLDVIEW
 70
1
  9
$USERI4
 70
0
  9
$SURFV
 70
6
  9
$DIMLWE
 70
-2
  9
$DIMLUNIT
 70
2
  9
$DIMATFIT
 70
3
  9
$DIMALTTZ
 70
0
  9
$DIMJUST
 70
0
  9
$QTEXTMODE
 70
0
  9
$LIMMAX
 10
250.0
 20
184.0
  9
$ACADMAINTVER
 70
20
  9
$GRIDMODE
 70
0
  9
$EXTNAMES
290
1
  9
$PROXYGRAPHICS
 70
1
  9
$USERI5
 70
0
  9
$UCSORGTOP
 10
0.0
 20
0.0
 30
0.0
  9
$PDMODE
 70
34
  9
$LIMCHECK
 70
1
  9
$THICKNESS
 40
0.0
  9
$DIMAZIN
 70
0
  9
$DIMSE1
 70
0
  9
$DIMLIM
 70
0
  9
$DIMTXT
 40
3.5
  9
$ATTMODE
 70
1
  9
$XEDIT
290
1
  9
$PEXTMAX
 10
-100000000000000000000.0
 20
-100000000000000000000.0
 30
-100000000000000000000.0
  9
$PEXTMIN
 10
100000000000000000000.0
 20
100000000000000000000.0
 30
100000000000000000000.0
  9
$PUCSORG
 10
0.0
 20
0.0
 30
0.0
  9
$SPLINETYPE
 70
6
  9
$TDINDWG
 40
0.0004002199
  9
$LUPREC
 70
2
  9
$DIMSOXD
 70
0
  9
$DIMLFAC
 40
1.0
  9
$DIMSE2
 70
0
  9
$DIMTOH
 70
1
  9
$CELTYPE
  6
ByLayer
  9
$PSVPSCALE
 40
0.0
  9
$FINGERPRINTGUID
  2
{97832D6D-D4F4-400C-B2F3-A38844DC2A7C}
  9
$PLIMCHECK
 70
0
  9
$PUCSORGRIGHT
 10
0.0
 20
0.0
 30
0.0
  9
$PLINEWID
 40
0.0
  9
$DIMFRAC
 70
0
  9
$DIMSTYLE
  2
STANDARD
  9
$DIMTVP
 40
0.0
  9
$DIMASO
 70
1
  9
$DIMTM
 40
0.0
  9
$DIMDLI
 40
7.0
  9
$DISPSILH
 70
0
  9
$CECOLOR
 62
256
  9
$TREEDEPTH
 70
3020
  9
$PLIMMAX
 10
12.0
 20
9.0
  9
$PLIMMIN
 10
0.0
 20
0.0
  9
$MAXACTVP
 70
48
  9
$UCSORGBACK
 10
0.0
 20
0.0
 30
0.0
  9
$UCSORGLEFT
 10
0.0
 20
0.0
 30
0.0
  9
$TDUPDATE
 40
2454221.4261673488654196
  9
$FILLETRAD
 40
0.0
  9
$DIMALTU
 70
2
  9
$DIMDEC
 70
2
  9
$DIMCLRT
 70
0
  9
$DIMALTD
 70
2
  9
$DIMTIH
 70
1
  9
$LTSCALE
 40
25.0
  9
$CEPSNTYPE
380
0
  9
$CMLSCALE
 40
1.0
  9
$PINSBASE
 10
0.0
 20
0.0
 30
0.0
  9
$USERR1
 40
0.0
  9
$PUCSORTHOVIEW
 70
0
  9
$PDSIZE
 40
7.0
  9
$DIMTXSTY
  7
STANDARD
  9
$DIMCLRD
 70
0
  9
$DIMEXE
 40
1.8
  9
$CELTSCALE
 40
1.0
  9
$PSLTSCALE
 70
0
  9
$PLINEGEN
 70
0
  9
$SHADEDGE
 70
3
  9
$USERR2
 40
0.0
  9
$PUCSORGTOP
 10
0.0
 20
0.0
 30
0.0
  9
$UCSORGFRONT
 10
0.0
 20
0.0
 30
0.0
  9
$TDCREATE
 40
2451877.0447025462053716
  9
$DIMTMOVE
 70
2
  9
$DIMAUNIT
 70
0
  9
$DIMSD1
 70
0
  9
$DIMCLRE
 70
0
  9
$DIMTOFL
 70
0
  9
$DIMALTF
 40
25.3999999999999986
  9
$DIMTOL
 70
0
  9
$DIMTP
 40
0.0
  9
$TEXTSTYLE
  7
STANDARD
  9
$USERR3
 40
0.0
  9
$PUCSORGBACK
 10
0.0
 20
0.0
 30
0.0
  9
$PUCSORGFRONT
 10
0.0
 20
0.0
 30
0.0
  9
$PUCSORGLEFT
 10
0.0
 20
0.0
 30
0.0
  9
$UCSORGBOTTOM
 10
0.0
 20
0.0
 30
0.0
  9
$AUNITS
 70
0
  9
$DIMSD2
 70
0
  9
$DIMTIX
 70
0
  9
$MIRRTEXT
 70
1
  0
ENDSEC
  0
SECTION
  2
TABLES
  0
TABLE
  2
VPORT
  5
8
100
AcDbSymbolTable
 70
1
  0
VPORT
  5
30
100
AcDbSymbolTableRecord
100
AcDbViewportTableRecord
  2
*Active
 70
0
 10
0.0
 20
0.0
 11
1.0
 21
1.0
 12
286.3055555555554861
 22
148.5
 13
0.0
 23
0.0
 14
10.0
 24
10.0
 15
10.0
 25
10.0
 16
0.0
 26
0.0
 36
1.0
 17
0.0
 27
0.0
 37
0.0
 40
297.0
 41
1.92798353909465
 42
50.0
 43
0.0
 44
0.0
 50
0.0
 51
0.0
 71
0
 72
100
 73
1
 74
3
 75
1
 76
1
 77
0
 78
0
281
0
 65
1
110
0.0
120
0.0
130
0.0
111
1.0
121
0.0
131
0.0
112
0.0
122
1.0
132
0.0
 79
0
146
0.0
  0
ENDTAB
  0
TABLE
  2
LTYPE
  5
5
100
AcDbSymbolTable
 70
21
  0
LTYPE
  5
14
100
AcDbSymbolTableRecord
100
AcDbLinetypeTableRecord
  2
ByBlock
 70
0
  3

 72
65
 73
0
 40
0.0
  0
LTYPE
  5
15
100
AcDbSymbolTableRecord
100
AcDbLinetypeTableRecord
  2
ByLayer
 70
0
  3

 72
65
 73
0
 40
0.0
  0
LTYPE
  5
16
100
AcDbSymbolTableRecord
100
AcDbLinetypeTableRecord
  2
CONTINUOUS
 70
0
  3
Solid line
 72
65
 73
0
 40
0.0
  0
LTYPE
  5
31
100
AcDbSymbolTableRecord
100
AcDbLinetypeTableRecord
  2
DOT
 70
0
  3
Dot . . . . . . . . . . . . . . . . . . . . . .
 72
65
 73
2
 40
6.3499999999999996
 49
0.0
 74
0
 49
-6.3499999999999996
 74
0
  0
LTYPE
  5
32
100
AcDbSymbolTableRecord
100
AcDbLinetypeTableRecord
  2
DOT2
 70
0
  3
Dot (.5x) .....................................
 72
65
 73
2
 40
3.1749999999999998
 49
0.0
 74
0
 49
-3.1749999999999998
 74
0
  0
LTYPE
  5
33
100
AcDbSymbolTableRecord
100
AcDbLinetypeTableRecord
  2
DOTX2
 70
0
  3
Dot (2x) .  .  .  .  .  .  .  .  .  .  .  .  .
 72
65
 73
2
 40
12.6999999999999993
 49
0.0
 74
0
 49
-12.6999999999999993
 74
0
  0
LTYPE
  5
34
100
AcDbSymbolTableRecord
100
AcDbLinetypeTableRecord
  2
DASHED
 70
0
  3
Dashed __ __ __ __ __ __ __ __ __ __ __ __ __ _
 72
65
 73
2
 40
19.0500000000000007
 49
12.6999999999999993
 74
0
 49
-6.3499999999999996
 74
0
  0
LTYPE
  5
35
100
AcDbSymbolTableRecord
100
AcDbLinetypeTableRecord
  2
DASHED2
 70
0
  3
Dashed (.5x) _ _ _ _ _ _ _ _ _ _ _ _ _ _ _ _ _
 72
65
 73
2
 40
9.5250000000000004
 49
6.3499999999999996
 74
0
 49
-3.1749999999999998
 74
0
  0
LTYPE
  5
36
100
AcDbSymbolTableRecord
100
AcDbLinetypeTableRecord
  2
DASHEDX2
 70
0
  3
Dashed (2x) ____  ____  ____  ____  ____  ___
 72
65
 73
2
 40
38.1000000000000014
 49
25.3999999999999986
 74
0
 49
-12.6999999999999993
 74
0
  0
LTYPE
  5
37
100
AcDbSymbolTableRecord
100
AcDbLinetypeTableRecord
  2
DASHDOT
 70
0
  3
Dash dot __ . __ . __ . __ . __ . __ . __ . __
 72
65
 73
4
 40
25.3999999999999986
 49
12.6999999999999993
 74
0
 49
-6.3499999999999996
 74
0
 49
0.0
 74
0
 49
-6.3499999999999996
 74
0
  0
LTYPE
  5
38
100
AcDbSymbolTableRecord
100
AcDbLinetypeTableRecord
  2
DASHDOT2
 70
0
  3
Dash dot (.5x) _._._._._._._._._._._._._._._.
 72
65
 73
4
 40
12.6999999999999993
 49
6.3499999999999996
 74
0
 49
-3.1749999999999998
 74
0
 49
0.0
 74
0
 49
-3.1749999999999998
 74
0
  0
LTYPE
  5
39
100
AcDbSymbolTableRecord
100
AcDbLinetypeTableRecord
  2
DASHDOTX2
 70
0
  3
Dash dot (2x) ____  .  ____  .  ____  .  ___
 72
65
 73
4
 40
50.7999999999999972
 49
25.3999999999999986
 74
0
 49
-12.6999999999999993
 74
0
 49
0.0
 74
0
 49
-12.6999999999999993
 74
0
  0
LTYPE
  5
3A
100
AcDbSymbolTableRecord
100
AcDbLinetypeTableRecord
  2
DIVIDE
 70
0
  3
Divide ____ . . ____ . . ____ . . ____ . . ____
 72
65
 73
6
 40
31.75
 49
12.6999999999999993
 74
0
 49
-6.3499999999999996
 74
0
 49
0.0
 74
0
 49
-6.3499999999999996
 74
0
 49
0.0
 74
0
 49
-6.3499999999999996
 74
0
  0
LTYPE
  5
3B
100
AcDbSymbolTableRecord
100
AcDbLinetypeTableRecord
  2
DIVIDE2
 70
0
  3
Divide (.5x) __..__..__..__..__..__..__..__.._
 72
65
 73
6
 40
15.875
 49
6.3499999999999996
 74
0
 49
-3.1749999999999998
 74
0
 49
0.0
 74
0
 49
-3.1749999999999998
 74
0
 49
0.0
 74
0
 49
-3.1749999999999998
 74
0
  0
LTYPE
  5
3C
100
AcDbSymbolTableRecord
100
AcDbLinetypeTableRecord
  2
DIVIDEX2
 70
0
  3
Divide (2x) ________  .  .  ________  .  .  _
 72
65
 73
6
 40
63.5
 49
25.3999999999999986
 74
0
 49
-12.6999999999999993
 74
0
 49
0.0
 74
0
 49
-12.6999999999999993
 74
0
 49
0.0
 74
0
 49
-12.6999999999999993
 74
0
  0
LTYPE
  5
3D
100
AcDbSymbolTableRecord
100
AcDbLinetypeTableRecord
  2
CENTER
 70
0
  3
Center ____ _ ____ _ ____ _ ____ _ ____ _ ____
 72
65
 73
4
 40
50.7999999999999972
 49
31.75
 74
0
 49
-6.3499999999999996
 74
0
 49
6.3499999999999996
 74
0
 49
-6.3499999999999996
 74
0
  0
LTYPE
  5
3E
100
AcDbSymbolTableRecord
100
AcDbLinetypeTableRecord
  2
CENTER2
 70
0
  3
Center (.5x) ___ _ ___ _ ___ _ ___ _ ___ _ ___
 72
65
 73
4
 40
28.5749999999999993
 49
19.0500000000000007
 74
0
 49
-3.1749999999999998
 74
0
 49
3.1749999999999998
 74
0
 49
-3.1749999999999998
 74
0
  0
LTYPE
  5
3F
100
AcDbSymbolTableRecord
100
AcDbLinetypeTableRecord
  2
CENTERX2
 70
0
  3
Center (2x) ________  __  ________  __  _____
 72
65
 73
4
 40
101.5999999999999943
 49
63.5
 74
0
 49
-12.6999999999999993
 74
0
 49
12.6999999999999993
 74
0
 49
-12.6999999999999993
 74
0
  0
LTYPE
  5
40
100
AcDbSymbolTableRecord
100
AcDbLinetypeTableRecord
  2
BORDER
 70
0
  3
Border __ __ . __ __ . __ __ . __ __ . __ __ .
 72
65
 73
6
 40
44.4500000000000028
 49
12.6999999999999993
 74
0
 49
-6.3499999999999996
 74
0
 49
12.6999999999999993
 74
0
 49
-6.3499999999999996
 74
0
 49
0.0
 74
0
 49
-6.3499999999999996
 74
0
  0
LTYPE
  5
41
100
AcDbSymbolTableRecord
100
AcDbLinetypeTableRecord
  2
BORDER2
 70
0
  3
Border (.5x) __.__.__.__.__.__.__.__.__.__.__.
 72
65
 73
6
 40
22.2250000000000014
 49
6.3499999999999996
 74
0
 49
-3.1749999999999998
 74
0
 49
6.3499999999999996
 74
0
 49
-3.1749999999999998
 74
0
 49
0.0
 74
0
 49
-3.1749999999999998
 74
0
  0
LTYPE
  5
42
100
AcDbSymbolTableRecord
100
AcDbLinetypeTableRecord
  2
BORDERX2
 70
0
  3
Border (2x) ____  ____  .  ____  ____  .  ___
 72
65
 73
6
 40
88.9000000000000057
 49
25.3999999999999986
 74
0
 49
-12.6999999999999993
 74
0
 49
25.3999999999999986
 74
0
 49
-12.6999999999999993
 74
0
 49
0.0
 74
0
 49
-12.6999999999999993
 74
0
  0
ENDTAB
  0
TABLE
  2
LAYER
  5
2
100
AcDbSymbolTable
 70
4
  0
LAYER
  5
10
100
AcDbSymbolTableRecord
100
AcDbLayerTableRecord
  2
0
 70
0
 62
7
  6
CONTINUOUS
370
-3
390
F
  0
LAYER
  5
43
100
AcDbSymbolTableRecord
100
AcDbLayerTableRecord
  2
DIBUIX
 70
0
 62
5
  6
CONTINUOUS
370
-3
390
F
  0
LAYER
  5
44
100
AcDbSymbolTableRecord
100
AcDbLayerTableRecord
  2
RESPOSTA
 70
0
 62
1
  6
CONTINUOUS
370
-3
390
F
  0
LAYER
  5
45
100
AcDbSymbolTableRecord
100
AcDbLayerTableRecord
  2
TEXT
 70
0
 62
7
  6
CONTINUOUS
370
-3
390
F
  0
ENDTAB
  0
TABLE
  2
STYLE
  5
3
100
AcDbSymbolTable
 70
1
  0
STYLE
  5
11
100
AcDbSymbolTableRecord
100
AcDbTextStyleTableRecord
  2
Standard
 70
0
 40
0.0
 41
0.75
 50
0.0
 71
0
 42
2.5
  3
txt
  4

  0
ENDTAB
  0
TABLE
  2
VIEW
  5
6
100
AcDbSymbolTable
 70
0
  0
ENDTAB
  0
TABLE
  2
UCS
  5
7
100
AcDbSymbolTable
 70
0
  0
ENDTAB
  0
TABLE
  2
APPID
  5
9
100
AcDbSymbolTable
 70
1
  0
APPID
  5
12
100
AcDbSymbolTableRecord
100
AcDbRegAppTableRecord
  2
ACAD
 70
0
  0
ENDTAB
  0
TABLE
  2
DIMSTYLE
  5
A
100
AcDbSymbolTable
 70
1
100
AcDbDimStyleTable
 71
0
  0
DIMSTYLE
105
27
100
AcDbSymbolTableRecord
100
AcDbDimStyleTableRecord
  2
Standard
 41
3.5
 42
0.1
 43
3.75
 44
1.8
 70
0
 73
0
 74
0
 77
1
 78
8
140
3.5
141
2.5
143
0.03937007874016
147
0.09
171
3
172
1
271
2
272
2
274
3
278
44
283
0
284
8
340
11
  0
ENDTAB
  0
TABLE
  2
BLOCK_RECORD
  5
1
100
AcDbSymbolTable
 70
1
  0
BLOCK_RECORD
  5
1F
100
AcDbSymbolTableRecord
100
AcDbBlockTableRecord
  2
*Model_Space
340
22
  0
BLOCK_RECORD
  5
1B
100
AcDbSymbolTableRecord
100
AcDbBlockTableRecord
  2
*Paper_Space
340
1E
  0
BLOCK_RECORD
  5
23
100
AcDbSymbolTableRecord
100
AcDbBlockTableRecord
  2
*Paper_Space0
340
26
  0
BLOCK_RECORD
  5
46
100
AcDbSymbolTableRecord
100
AcDbBlockTableRecord
  2
REFEN-1
340
0
  0
BLOCK_RECORD
  5
47
100
AcDbSymbolTableRecord
100
AcDbBlockTableRecord
  2
MARC-REF
340
0
  0
ENDTAB
  0
ENDSEC
  0
SECTION
  2
BLOCKS
  0
BLOCK
  5
20
100
AcDbEntity
  8
0
100
AcDbBlockBegin
  2
*Model_Space
 70
0
 10
0.0
 20
0.0
 30
0.0
  3
*Model_Space
  1

  0
ENDBLK
  5
21
100
AcDbEntity
  8
0
100
AcDbBlockEnd
  0
BLOCK
  5
1C
100
AcDbEntity
 67
1
  8
0
100
AcDbBlockBegin
  2
*Paper_Space
 70
0
 10
0.0
 20
0.0
 30
0.0
  3
*Paper_Space
  1

  0
ENDBLK
  5
1D
100
AcDbEntity
 67
1
  8
0
100
AcDbBlockEnd
  0
BLOCK
  5
24
100
AcDbEntity
  8
0
100
AcDbBlockBegin
  2
*Paper_Space0
 70
0
 10
0.0
 20
0.0
 30
0.0
  3
*Paper_Space0
  1

  0
ENDBLK
  5
25
100
AcDbEntity
  8
0
100
AcDbBlockEnd
  0
BLOCK
  5
48
100
AcDbEntity
  8
0
100
AcDbBlockBegin
  2
REFEN-1
 70
0
 10
0.0
 20
0.0
 30
0.0
  3
REFEN-1
  1

  0
LINE
  5
49
100
AcDbEntity
100
AcDbLine
  8
0
 62
256
370
-1
  6
ByLayer
 10
90.0
 20
65.0
 30
0.0
 11
370.0
 21
65.0
 31
0.0
  0
LINE
  5
4A
100
AcDbEntity
100
AcDbLine
  8
0
 62
256
370
-1
  6
ByLayer
 10
370.0
 20
65.0
 30
0.0
 11
370.0
 21
265.0
 31
0.0
  0
LINE
  5
4B
100
AcDbEntity
100
AcDbLine
  8
0
 62
256
370
-1
  6
ByLayer
 10
370.0
 20
265.0
 30
0.0
 11
90.0
 21
265.0
 31
0.0
  0
LINE
  5
4C
100
AcDbEntity
100
AcDbLine
  8
0
 62
256
370
-1
  6
ByLayer
 10
90.0
 20
265.0
 30
0.0
 11
90.0
 21
65.0
 31
0.0
  0
LINE
  5
4D
100
AcDbEntity
100
AcDbLine
  8
0
 62
256
370
-1
  6
ByLayer
 10
90.0
 20
165.0
 30
0.0
 11
183.333333333333286
 21
165.0
 31
0.0
  0
LINE
  5
4E
100
AcDbEntity
100
AcDbLine
  8
DIBUIX
 62
1
370
-1
  6
ByLayer
 10
101.7490946668347931
 20
191.3782770053580862
 30
0.0
 11
148.7417928041778055
 21
191.3782770053580862
 31
0.0
  0
MTEXT
  5
4F
100
AcDbEntity
100
AcDbMText
  8
TEXT
 62
6
370
-1
  6
ByLayer
 10
101.2595873945708007
 20
181.0915231742841911
 30
0.0
 40
5.0
 41
100.0
 71
7
 72
2
  1
A
  7
STANDARD
 50
0.0
 73
0
 44
1.0
  0
MTEXT
  5
50
100
AcDbEntity
100
AcDbMText
  8
TEXT
 62
6
370
-1
  6
ByLayer
 10
147.2732709873858141
 20
180.6016777537568032
 30
0.0
 40
5.0
 41
100.0
 71
7
 72
2
  1
B
  7
STANDARD
 50
0.0
 73
0
 44
1.0
  0
LINE
  5
51
100
AcDbEntity
100
AcDbLine
  8
DIBUIX
 62
1
370
-1
  6
ByLayer
 10
258.8809290635754223
 20
195.2970403695767914
 30
0.0
 11
323.0063817301580116
 21
195.2970403695767914
 31
0.0
  0
LINE
  5
52
100
AcDbEntity
100
AcDbLine
  8
DIBUIX
 62
1
370
-1
  6
ByLayer
 10
279.4402344986629032
 20
195.2970403695767914
 30
0.0
 11
274.0556545037590013
 21
172.2743056047922039
 31
0.0
  0
LINE
  5
53
100
AcDbEntity
100
AcDbLine
  8
DIBUIX
 62
1
370
-1
  6
ByLayer
 10
279.4402344986629032
 20
195.2970403695767914
 30
0.0
 11
279.4402344986629032
 21
220.7690022369980056
 31
0.0
  0
MTEXT
  5
54
100
AcDbEntity
100
AcDbMText
  8
TEXT
 62
6
370
-1
  6
ByLayer
 10
284.8248144935668051
 20
186.9696682206121068
 30
0.0
 40
4.5
 41
100.0
 71
7
 72
2
  1
A
  7
STANDARD
 50
0.0
 73
0
 44
1.0
  0
LINE
  5
55
100
AcDbEntity
100
AcDbLine
  8
0
 62
256
370
-1
  6
ByLayer
 10
183.333333333333286
 20
165.0
 30
0.0
 11
276.6666666666666856
 21
165.0
 31
0.0
  0
LINE
  5
56
100
AcDbEntity
100
AcDbLine
  8
0
 62
256
370
-1
  6
ByLayer
 10
276.6666666666666856
 20
165.0
 30
0.0
 11
370.0
 21
165.0
 31
0.0
  0
LINE
  5
57
100
AcDbEntity
100
AcDbLine
  8
0
 62
256
370
-1
  6
ByLayer
 10
230.0
 20
265.0
 30
0.0
 11
230.0
 21
65.0
 31
0.0
  0
MTEXT
  5
58
100
AcDbEntity
100
AcDbMText
  8
TEXT
 62
6
370
-1
  6
ByLayer
 10
97.3435292164589328
 20
149.7414162605350043
 30
0.0
 40
4.5
 41
100.0
 71
7
 72
2
  1
Dibuixar\~una\~recta\~perpendicu-
  7
STANDARD
 50
0.0
 73
0
 44
1.0
  0
MTEXT
  5
59
100
AcDbEntity
100
AcDbMText
  8
TEXT
 62
6
370
-1
  6
ByLayer
 10
97.3435292164589328
 20
142.2414162605348906
 30
0.0
 40
4.5
 41
100.0
 71
7
 72
2
  1
lar\~a\~la\~recta\~A
  7
STANDARD
 50
0.0
 73
0
 44
1.0
  0
LINE
  5
5A
100
AcDbEntity
100
AcDbLine
  8
DIBUIX
 62
1
370
-1
  6
ByLayer
 10
116.4343128347544933
 20
118.3913093467857038
 30
0.0
 11
185.9443454962409135
 21
71.8559943966892831
 31
0.0
  0
MTEXT
  5
5B
100
AcDbEntity
100
AcDbMText
  8
TEXT
 62
6
370
-1
  6
ByLayer
 10
240.2796527175437973
 20
149.251570840007588
 30
0.0
 40
4.5
 41
100.0
 71
7
 72
2
  1
Dibuixar\~una\~linea\~perpendicular
  7
STANDARD
 50
0.0
 73
0
 44
1.0
  0
MTEXT
  5
5C
100
AcDbEntity
100
AcDbMText
  8
TEXT
 62
6
370
-1
  6
ByLayer
 10
240.2796527175437973
 20
141.751570840007588
 30
0.0
 40
4.5
 41
100.0
 71
7
 72
2
  1
a\~la\~recta\~A\~que\~pasi\~per\~el
  7
STANDARD
 50
0.0
 73
0
 44
1.0
  0
MTEXT
  5
5D
100
AcDbEntity
100
AcDbMText
  8
TEXT
 62
6
370
-1
  6
ByLayer
 10
240.2796527175437973
 20
134.251570840007588
 30
0.0
 40
4.5
 41
100.0
 71
7
 72
2
  1
punt\~P1
  7
STANDARD
 50
0.0
 73
0
 44
1.0
  0
LINE
  5
5E
100
AcDbEntity
100
AcDbLine
  8
DIBUIX
 62
1
370
-1
  6
ByLayer
 10
247.1327545292396053
 20
102.2264104693837936
 30
0.0
 11
322.0273671856299984
 21
66.4676947708886416
 31
0.0
  0
POINT
  5
5F
100
AcDbEntity
100
AcDbPoint
  8
DIBUIX
 62
1
370
-1
  6
ByLayer
 10
314.1952508294061772
 20
118.8811547673131059
 30
0.0
  0
MTEXT
  5
60
100
AcDbEntity
100
AcDbMText
  8
TEXT
 62
6
370
-1
  6
ByLayer
 10
272.0976254147029749
 20
78.2239848635446009
 30
0.0
 40
4.5
 41
100.0
 71
7
 72
2
  1
A
  7
STANDARD
 50
0.0
 73
0
 44
1.0
  0
MTEXT
  5
61
100
AcDbEntity
100
AcDbMText
  8
TEXT
 62
6
370
-1
  6
ByLayer
 10
321.5378599133659918
 20
115.9420822441491055
 30
0.0
 40
4.5
 41
100.0
 71
7
 72
2
  1
P1
  7
STANDARD
 50
0.0
 73
0
 44
1.0
  0
MTEXT
  5
62
100
AcDbEntity
100
AcDbMText
  8
TEXT
 62
6
370
-1
  6
ByLayer
 10
137.483125542105995
 20
88.5107386946185386
 30
0.0
 40
4.5
 41
100.0
 71
7
 72
2
  1
A
  7
STANDARD
 50
0.0
 73
0
 44
1.0
  0
MTEXT
  5
63
100
AcDbEntity
100
AcDbMText
  8
TEXT
 62
256
370
-1
  6
ByLayer
 10
242.2376818065997099
 20
252.6089545712746087
 30
0.0
 40
4.5
 41
100.0
 71
7
 72
2
  1
Dibuixa\~una\~linea\~cualsevol\~des-
  7
STANDARD
 50
0.0
 73
0
 44
1.0
  0
MTEXT
  5
64
100
AcDbEntity
100
AcDbMText
  8
TEXT
 62
256
370
-1
  6
ByLayer
 10
242.2376818065997099
 20
245.1089545712746087
 30
0.0
 40
4.5
 41
100.0
 71
7
 72
2
  1
de\~el\~punt\~A
  7
STANDARD
 50
0.0
 73
0
 44
1.0
  0
MTEXT
  5
65
100
AcDbEntity
100
AcDbMText
  8
TEXT
 62
256
370
-1
  6
ByLayer
 10
102.7281092113628063
 20
251.6292637302198898
 30
0.0
 40
4.5
 41
100.0
 71
7
 72
2
  1
Dibuixa\~una\~linea\~cualsevol\~al
  7
STANDARD
 50
0.0
 73
0
 44
1.0
  0
MTEXT
  5
66
100
AcDbEntity
100
AcDbMText
  8
TEXT
 62
256
370
-1
  6
ByLayer
 10
102.7281092113628063
 20
244.1292637302198898
 30
0.0
 40
4.5
 41
100.0
 71
7
 72
2
  1
extrem\~B
  7
STANDARD
 50
0.0
 73
0
 44
1.0
  0
MTEXT
  5
67
100
AcDbEntity
100
AcDbMText
  8
TEXT
 62
3
370
-1
  6
ByLayer
 10
111.180188968190393
 20
269.5365241667126952
 30
0.0
 40
5.0
 41
100.0
 71
7
 72
2
  1
EXERCICIS\~SOBRE\~MODOS\~DE\~REFERENCIA\~I
  7
STANDARD
 50
0.0
 73
0
 44
1.0
  0
ENDBLK
  5
68
100
AcDbEntity
  8
0
100
AcDbBlockEnd
  0
BLOCK
  5
69
100
AcDbEntity
  8
0
100
AcDbBlockBegin
  2
MARC-REF
 70
0
 10
0.0
 20
0.0
 30
0.0
  3
MARC-REF
  1

  0
MTEXT
  5
6A
100
AcDbEntity
100
AcDbMText
  8
TEXT
 62
3
370
-1
  6
ByLayer
 10
17.7070533299964517
 20
178.9146227261009869
 30
0.0
 40
5.0
 41
100.0
 71
7
 72
2
  1
EXERCICIS\~SOBRE\~MODES\~DE\~REFERENCIA\~I
  7
STANDARD
 50
0.0
 73
0
 44
1.0
  0
LINE
  5
6B
100
AcDbEntity
100
AcDbLine
  8
0
 62
2
370
-1
  6
ByLayer
 10
249.0
 20
177.0
 30
0.0
 11
-3.9999999999999991
 21
177.0
 31
0.0
  0
LINE
  5
6C
100
AcDbEntity
100
AcDbLine
  8
0
 62
2
370
-1
  6
ByLayer
 10
1.0
 20
177.0
 30
0.0
 11
1.0
 21
0.0000000000000002
 31
0.0
  0
LINE
  5
6D
100
AcDbEntity
100
AcDbLine
  8
0
 62
256
370
-1
  6
ByLayer
 10
249.0
 20
175.0
 30
0.0
 11
-4.0
 21
175.0
 31
0.0
  0
LINE
  5
6E
100
AcDbEntity
100
AcDbLine
  8
0
 62
256
370
-1
  6
ByLayer
 10
-4.0
 20
175.0
 30
0.0
 11
-4.0
 21
0.0000000000000015
 31
0.0
  0
LINE
  5
6F
100
AcDbEntity
100
AcDbLine
  8
0
 62
2
370
-1
  6
ByLayer
 10
249.0
 20
162.0
 30
0.0
 11
-4.0000000000000018
 21
162.0
 31
0.0
  0
LINE
  5
70
100
AcDbEntity
100
AcDbLine
  8
0
 62
256
370
-1
  6
ByLayer
 10
122.5
 20
175.0
 30
0.0
 11
122.5
 21
0.0
 31
0.0
  0
LINE
  5
71
100
AcDbEntity
100
AcDbLine
  8
0
 62
2
370
-1
  6
ByLayer
 10
127.5
 20
175.0
 30
0.0
 11
127.5
 21
-0.0000000000000012
 31
0.0
  0
LINE
  5
72
100
AcDbEntity
100
AcDbLine
  8
0
 62
256
370
-1
  6
ByLayer
 10
249.0
 20
-0.000000000000001
 30
0.0
 11
249.0
 21
175.0
 31
0.0
  0
LINE
  5
73
100
AcDbEntity
100
AcDbLine
  8
0
 62
256
370
-1
  6
ByLayer
 10
-4.0
 20
87.5
 30
0.0
 11
249.0
 21
87.5
 31
0.0
  0
LINE
  5
74
100
AcDbEntity
100
AcDbLine
  8
0
 62
2
370
-1
  6
ByLayer
 10
-4.0000000000000018
 20
74.5
 30
0.0
 11
249.0
 21
74.5
 31
0.0
  0
LINE
  5
75
100
AcDbEntity
100
AcDbLine
  8
0
 62
256
370
-1
  6
ByLayer
 10
-4.0
 20
0.0
 30
0.0
 11
249.0
 21
0.0
 31
0.0
  0
ENDBLK
  5
76
100
AcDbEntity
  8
0
100
AcDbBlockEnd
  0
ENDSEC
  0
SECTION
  2
ENTITIES
  0
CIRCLE
  5
77
100
AcDbEntity
100
AcDbCircle
  8
DIBUIX
 62
256
370
-1
  6
ByLayer
 10
30.1508412456149415
 20
21.6546277450432783
 30
0.0
 40
18.6706058580059384
  0
CIRCLE
  5
78
100
AcDbEntity
100
AcDbCircle
  8
DIBUIX
 62
256
370
-1
  6
ByLayer
 10
99.5835832851650338
 20
41.9574313590050565
 30
0.0
 40
12.3805294986145498
  0
LINE
  5
79
100
AcDbEntity
100
AcDbLine
  8
DIBUIX
 62
256
370
-1
  6
ByLayer
 10
159.9990860987994949
 20
95.1958941689492946
 30
0.0
 11
243.8594108998144918
 21
105.1217092691082939
 31
0.0
  0
LINE
  5
7A
100
AcDbEntity
100
AcDbLine
  8
DIBUIX
 62
256
370
-1
  6
ByLayer
 10
243.8594108998144918
 20
105.1217092691082939
 30
0.0
 11
192.4611473120955907
 21
153.3972645289728973
 31
0.0
  0
LINE
  5
7B
100
AcDbEntity
100
AcDbLine
  8
DIBUIX
 62
256
370
-1
  6
ByLayer
 10
111.7568562401510945
 20
92.0376802734440957
 30
0.0
 11
58.5551448072490572
 21
106.9264029236827014
 31
0.0
  0
MTEXT
  5
7C
100
AcDbEntity
100
AcDbMText
  8
TEXT
 62
256
370
-1
  6
ByLayer
 10
57.6534208846574927
 20
143.4714494288137985
 30
0.0
 40
4.1447368421052646
 41
100.0
 71
7
 72
2
  1
P1
  7
STANDARD
 50
0.0
 73
0
 44
1.0
  0
LINE
  5
7D
100
AcDbEntity
100
AcDbLine
  8
0
 62
256
370
-1
  6
ByLayer
 10
253.0
 20
175.0
 30
0.0
 11
0.0
 21
175.0
 31
0.0
  0
LINE
  5
7E
100
AcDbEntity
100
AcDbLine
  8
0
 62
256
370
-1
  6
ByLayer
 10
0.0
 20
175.0
 30
0.0
 11
0.0
 21
0.0000000000000015
 31
0.0
  0
LINE
  5
7F
100
AcDbEntity
100
AcDbLine
  8
0
 62
256
370
-1
  6
ByLayer
 10
126.5
 20
175.0
 30
0.0
 11
126.5
 21
0.0
 31
0.0
  0
LINE
  5
80
100
AcDbEntity
100
AcDbLine
  8
0
 62
256
370
-1
  6
ByLayer
 10
253.0
 20
-0.000000000000001
 30
0.0
 11
253.0
 21
175.0
 31
0.0
  0
LINE
  5
81
100
AcDbEntity
100
AcDbLine
  8
0
 62
256
370
-1
  6
ByLayer
 10
0.0
 20
87.5
 30
0.0
 11
253.0
 21
87.5
 31
0.0
  0
LINE
  5
82
100
AcDbEntity
100
AcDbLine
  8
0
 62
256
370
-1
  6
ByLayer
 10
0.0
 20
0.0
 30
0.0
 11
253.0
 21
0.0
 31
0.0
  0
MTEXT
  5
83
100
AcDbEntity
100
AcDbMText
  8
TEXT
 62
3
370
-1
  6
ByLayer
 10
5.0
 20
177.0
 30
0.0
 40
5.0
 41
100.0
 71
7
 72
2
  1
EXERCICIS\~SOBRE:\~MODES\~DE\~REFERENCIA"\~II
  7
STANDARD
 50
0.0
 73
0
 44
1.0
  0
MTEXT
  5
84
100
AcDbEntity
100
AcDbMText
  8
TEXT
 62
256
370
-1
  6
ByLayer
 10
5.0
 20
154.5
 30
0.0
 40
4.5
 41
100.0
 71
7
 72
2
  1
a\~la\~recta\~A\~que\~passi\~per\~P1
  7
STANDARD
 50
0.0
 73
0
 44
1.0
  0
MTEXT
  5
85
100
AcDbEntity
100
AcDbMText
  8
TEXT
 62
256
370
-1
  6
ByLayer
 10
5.0
 20
147.0
 30
0.0
 40
4.5
 41
100.0
 71
7
 72
2
  1

  7
STANDARD
 50
0.0
 73
0
 44
1.0
  0
MTEXT
  5
86
100
AcDbEntity
100
AcDbMText
  8
TEXT
 62
256
370
-1
  6
ByLayer
 10
131.7444204123451925
 20
161.7282172583468878
 30
0.0
 40
4.5
 41
100.0
 71
7
 72
2
  1
Dibuixar\~les\~mitjanes\~del\~triangle.
  7
STANDARD
 50
0.0
 73
0
 44
1.0
  0
MTEXT
  5
87
100
AcDbEntity
100
AcDbMText
  8
TEXT
 62
256
370
-1
  6
ByLayer
 10
131.5
 20
154.5
 30
0.0
 40
4.5
 41
100.0
 71
7
 72
2
  1

  7
STANDARD
 50
0.0
 73
0
 44
1.0
  0
MTEXT
  5
88
100
AcDbEntity
100
AcDbMText
  8
TEXT
 62
256
370
-1
  6
ByLayer
 10
3.9554074874489391
 20
74.3217410138335595
 30
0.0
 40
4.5
 41
100.0
 71
7
 72
2
  1
Dibuixar\~les\~tangents\~exteriors\~i
  7
STANDARD
 50
0.0
 73
0
 44
1.0
  0
MTEXT
  5
89
100
AcDbEntity
100
AcDbMText
  8
TEXT
 62
256
370
-1
  6
ByLayer
 10
3.9554074874489391
 20
66.8217410138335595
 30
0.0
 40
4.5
 41
100.0
 71
7
 72
2
  1
interiors\~als\~dos\~cercles.
  7
STANDARD
 50
0.0
 73
0
 44
1.0
  0
MTEXT
  5
8A
100
AcDbEntity
100
AcDbMText
  8
TEXT
 62
256
370
-1
  6
ByLayer
 10
3.9554074874489391
 20
59.3217410138335595
 30
0.0
 40
4.5
 41
100.0
 71
7
 72
2
  1

  7
STANDARD
 50
0.0
 73
0
 44
1.0
  0
MTEXT
  5
8B
100
AcDbEntity
100
AcDbMText
  8
TEXT
 62
256
370
-1
  6
ByLayer
 10
131.5
 20
74.5
 30
0.0
 40
4.5
 41
100.0
 71
7
 72
2
  1
Dibuixar\~dos\~cercles\~concentrics
  7
STANDARD
 50
0.0
 73
0
 44
1.0
  0
MTEXT
  5
8C
100
AcDbEntity
100
AcDbMText
  8
TEXT
 62
256
370
-1
  6
ByLayer
 10
131.5
 20
67.0
 30
0.0
 40
4.5
 41
100.0
 71
7
 72
2
  1
de\~radi\~qualsevol.
  7
STANDARD
 50
0.0
 73
0
 44
1.0
  0
LINE
  5
8D
100
AcDbEntity
100
AcDbLine
  8
DIBUIX
 62
256
370
-1
  6
ByLayer
 10
192.4610000000000127
 20
153.3969999999999914
 30
0.0
 11
159.9989999999999952
 21
95.1958999999999946
 31
0.0
  0
CIRCLE
  5
8E
100
AcDbEntity
100
AcDbCircle
  8
DIBUIX
 62
256
370
-1
  6
ByLayer
 10
198.3434883008581551
 20
34.375612947937725
 30
0.0
 40
11.1364907484980797
  0
POINT
  5
8F
100
AcDbEntity
100
AcDbPoint
  8
DIBUIX
 62
256
370
-1
  6
ByLayer
 10
61.2814520669411067
 20
132.7971870756736052
 30
0.0
  0
LINE
  5
90
100
AcDbEntity
100
AcDbLine
  8
TEXT
 62
256
370
-1
  6
ByLayer
 10
5.0
 20
162.0
 30
0.0
 11
6.5
 21
162.0
 31
0.0
  0
ARC
  5
91
100
AcDbEntity
  8
TEXT
 62
256
370
-1
  6
ByLayer
100
AcDbCircle
 10
6.5
 20
163.0
 30
0.0
 40
1.0
100
AcDbArc
 50
270.0
 51
0.0
  0
LINE
  5
92
100
AcDbEntity
100
AcDbLine
  8
TEXT
 62
256
370
-1
  6
ByLayer
 10
7.5
 20
163.0
 30
0.0
 11
7.5
 21
165.5
 31
0.0
  0
ARC
  5
93
100
AcDbEntity
  8
TEXT
 62
256
370
-1
  6
ByLayer
100
AcDbCircle
 10
6.5
 20
165.5
 30
0.0
 40
1.0
100
AcDbArc
 50
0.0
 51
90.0
  0
LINE
  5
94
100
AcDbEntity
100
AcDbLine
  8
TEXT
 62
256
370
-1
  6
ByLayer
 10
6.5
 20
166.5
 30
0.0
 11
5.0
 21
166.5
 31
0.0
  0
LINE
  5
95
100
AcDbEntity
100
AcDbLine
  8
TEXT
 62
256
370
-1
  6
ByLayer
 10
5.0
 20
166.5
 30
0.0
 11
5.0
 21
162.0
 31
0.0
  0
LINE
  5
96
100
AcDbEntity
100
AcDbLine
  8
TEXT
 62
256
370
-1
  6
ByLayer
 10
9.0
 20
162.0
 30
0.0
 11
9.0
 21
165.0
 31
0.0
  0
LINE
  5
97
100
AcDbEntity
100
AcDbLine
  8
TEXT
 62
256
370
-1
  6
ByLayer
 10
9.0
 20
166.25
 30
0.0
 11
9.0
 21
166.5
 31
0.0
  0
LINE
  5
98
100
AcDbEntity
100
AcDbLine
  8
TEXT
 62
256
370
-1
  6
ByLayer
 10
10.5
 20
166.5
 30
0.0
 11
10.5
 21
162.0
 31
0.0
  0
LINE
  5
99
100
AcDbEntity
100
AcDbLine
  8
TEXT
 62
256
370
-1
  6
ByLayer
 10
10.5
 20
162.0
 30
0.0
 11
11.75
 21
162.0
 31
0.0
  0
ARC
  5
9A
100
AcDbEntity
  8
TEXT
 62
256
370
-1
  6
ByLayer
100
AcDbCircle
 10
11.75
 20
162.75
 30
0.0
 40
0.75
100
AcDbArc
 50
270.0
 51
0.0
  0
LINE
  5
9B
100
AcDbEntity
100
AcDbLine
  8
TEXT
 62
256
370
-1
  6
ByLayer
 10
12.5
 20
162.75
 30
0.0
 11
12.5
 21
164.25
 31
0.0
  0
ARC
  5
9C
100
AcDbEntity
  8
TEXT
 62
256
370
-1
  6
ByLayer
100
AcDbCircle
 10
11.75
 20
164.25
 30
0.0
 40
0.75
100
AcDbArc
 50
0.0
 51
90.0
  0
LINE
  5
9D
100
AcDbEntity
100
AcDbLine
  8
TEXT
 62
256
370
-1
  6
ByLayer
 10
11.75
 20
165.0
 30
0.0
 11
10.5
 21
165.0
 31
0.0
  0
LINE
  5
9E
100
AcDbEntity
100
AcDbLine
  8
TEXT
 62
256
370
-1
  6
ByLayer
 10
14.0
 20
165.0
 30
0.0
 11
14.0
 21
162.75
 31
0.0
  0
ARC
  5
9F
100
AcDbEntity
  8
TEXT
 62
256
370
-1
  6
ByLayer
100
AcDbCircle
 10
14.75
 20
162.75
 30
0.0
 40
0.75
100
AcDbArc
 50
180.0
 51
270.0
  0
LINE
  5
A0
100
AcDbEntity
100
AcDbLine
  8
TEXT
 62
256
370
-1
  6
ByLayer
 10
14.75
 20
162.0
 30
0.0
 11
16.0
 21
162.0
 31
0.0
  0
LINE
  5
A1
100
AcDbEntity
100
AcDbLine
  8
TEXT
 62
256
370
-1
  6
ByLayer
 10
16.0
 20
162.0
 30
0.0
 11
16.0
 21
165.0
 31
0.0
  0
LINE
  5
A2
100
AcDbEntity
100
AcDbLine
  8
TEXT
 62
256
370
-1
  6
ByLayer
 10
17.5
 20
162.0
 30
0.0
 11
17.5
 21
165.0
 31
0.0
  0
LINE
  5
A3
100
AcDbEntity
100
AcDbLine
  8
TEXT
 62
256
370
-1
  6
ByLayer
 10
17.5
 20
166.25
 30
0.0
 11
17.5
 21
166.5
 31
0.0
  0
LINE
  5
A4
100
AcDbEntity
100
AcDbLine
  8
TEXT
 62
256
370
-1
  6
ByLayer
 10
19.0
 20
165.0
 30
0.0
 11
21.0
 21
162.0
 31
0.0
  0
LINE
  5
A5
100
AcDbEntity
100
AcDbLine
  8
TEXT
 62
256
370
-1
  6
ByLayer
 10
19.0
 20
162.0
 30
0.0
 11
21.0
 21
165.0
 31
0.0
  0
LINE
  5
A6
100
AcDbEntity
100
AcDbLine
  8
TEXT
 62
256
370
-1
  6
ByLayer
 10
22.75
 20
165.0
 30
0.0
 11
23.75
 21
165.0
 31
0.0
  0
ARC
  5
A7
100
AcDbEntity
  8
TEXT
 62
256
370
-1
  6
ByLayer
100
AcDbCircle
 10
23.75
 20
164.25
 30
0.0
 40
0.75
100
AcDbArc
 50
0.0
 51
90.0
  0
LINE
  5
A8
100
AcDbEntity
100
AcDbLine
  8
TEXT
 62
256
370
-1
  6
ByLayer
 10
24.5
 20
164.25
 30
0.0
 11
24.5
 21
162.0
 31
0.0
  0
LINE
  5
A9
100
AcDbEntity
100
AcDbLine
  8
TEXT
 62
256
370
-1
  6
ByLayer
 10
24.5
 20
162.0
 30
0.0
 11
23.25
 21
162.0
 31
0.0
  0
ARC
  5
AA
100
AcDbEntity
  8
TEXT
 62
256
370
-1
  6
ByLayer
100
AcDbCircle
 10
23.25
 20
162.75
 30
0.0
 40
0.75
100
AcDbArc
 50
90.0
 51
270.0
  0
LINE
  5
AB
100
AcDbEntity
100
AcDbLine
  8
TEXT
 62
256
370
-1
  6
ByLayer
 10
23.25
 20
163.5
 30
0.0
 11
24.5
 21
163.5
 31
0.0
  0
LINE
  5
AC
100
AcDbEntity
100
AcDbLine
  8
TEXT
 62
256
370
-1
  6
ByLayer
 10
26.0
 20
162.0
 30
0.0
 11
26.0
 21
165.0
 31
0.0
  0
LINE
  5
AD
100
AcDbEntity
100
AcDbLine
  8
TEXT
 62
256
370
-1
  6
ByLayer
 10
26.0
 20
165.0
 30
0.0
 11
27.0
 21
165.0
 31
0.0
  0
ARC
  5
AE
100
AcDbEntity
  8
TEXT
 62
256
370
-1
  6
ByLayer
100
AcDbCircle
 10
27.0
 20
164.5
 30
0.0
 40
0.5
100
AcDbArc
 50
0.0
 51
90.0
  0
LINE
  5
AF
100
AcDbEntity
100
AcDbLine
  8
TEXT
 62
256
370
-1
  6
ByLayer
 10
32.375
 20
165.0
 30
0.0
 11
32.375
 21
162.75
 31
0.0
  0
ARC
  5
B0
100
AcDbEntity
  8
TEXT
 62
256
370
-1
  6
ByLayer
100
AcDbCircle
 10
33.125
 20
162.75
 30
0.0
 40
0.75
100
AcDbArc
 50
180.0
 51
270.0
  0
LINE
  5
B1
100
AcDbEntity
100
AcDbLine
  8
TEXT
 62
256
370
-1
  6
ByLayer
 10
33.125
 20
162.0
 30
0.0
 11
34.375
 21
162.0
 31
0.0
  0
LINE
  5
B2
100
AcDbEntity
100
AcDbLine
  8
TEXT
 62
256
370
-1
  6
ByLayer
 10
34.375
 20
162.0
 30
0.0
 11
34.375
 21
165.0
 31
0.0
  0
LINE
  5
B3
100
AcDbEntity
100
AcDbLine
  8
TEXT
 62
256
370
-1
  6
ByLayer
 10
35.875
 20
162.0
 30
0.0
 11
35.875
 21
165.0
 31
0.0
  0
LINE
  5
B4
100
AcDbEntity
100
AcDbLine
  8
TEXT
 62
256
370
-1
  6
ByLayer
 10
35.875
 20
165.0
 30
0.0
 11
37.125
 21
165.0
 31
0.0
  0
ARC
  5
B5
100
AcDbEntity
  8
TEXT
 62
256
370
-1
  6
ByLayer
100
AcDbCircle
 10
37.125
 20
164.25
 30
0.0
 40
0.75
100
AcDbArc
 50
0.0
 51
90.0
  0
LINE
  5
B6
100
AcDbEntity
100
AcDbLine
  8
TEXT
 62
256
370
-1
  6
ByLayer
 10
37.875
 20
164.25
 30
0.0
 11
37.875
 21
162.0
 31
0.0
  0
LINE
  5
B7
100
AcDbEntity
100
AcDbLine
  8
TEXT
 62
256
370
-1
  6
ByLayer
 10
39.625
 20
165.0
 30
0.0
 11
40.625
 21
165.0
 31
0.0
  0
ARC
  5
B8
100
AcDbEntity
  8
TEXT
 62
256
370
-1
  6
ByLayer
100
AcDbCircle
 10
40.625
 20
164.25
 30
0.0
 40
0.75
100
AcDbArc
 50
0.0
 51
90.0
  0
LINE
  5
B9
100
AcDbEntity
100
AcDbLine
  8
TEXT
 62
256
370
-1
  6
ByLayer
 10
41.375
 20
164.25
 30
0.0
 11
41.375
 21
162.0
 31
0.0
  0
LINE
  5
BA
100
AcDbEntity
100
AcDbLine
  8
TEXT
 62
256
370
-1
  6
ByLayer
 10
41.375
 20
162.0
 30
0.0
 11
40.125
 21
162.0
 31
0.0
  0
ARC
  5
BB
100
AcDbEntity
  8
TEXT
 62
256
370
-1
  6
ByLayer
100
AcDbCircle
 10
40.125
 20
162.75
 30
0.0
 40
0.75
100
AcDbArc
 50
90.0
 51
270.0
  0
LINE
  5
BC
100
AcDbEntity
100
AcDbLine
  8
TEXT
 62
256
370
-1
  6
ByLayer
 10
40.125
 20
163.5
 30
0.0
 11
41.375
 21
163.5
 31
0.0
  0
LINE
  5
BD
100
AcDbEntity
100
AcDbLine
  8
TEXT
 62
256
370
-1
  6
ByLayer
 10
46.25
 20
166.5
 30
0.0
 11
46.25
 21
162.5
 31
0.0
  0
ARC
  5
BE
100
AcDbEntity
  8
TEXT
 62
256
370
-1
  6
ByLayer
100
AcDbCircle
 10
46.75
 20
162.5
 30
0.0
 40
0.5
100
AcDbArc
 50
180.0
 51
270.0
  0
LINE
  5
BF
100
AcDbEntity
100
AcDbLine
  8
TEXT
 62
256
370
-1
  6
ByLayer
 10
48.25
 20
162.0
 30
0.0
 11
48.25
 21
165.0
 31
0.0
  0
LINE
  5
C0
100
AcDbEntity
100
AcDbLine
  8
TEXT
 62
256
370
-1
  6
ByLayer
 10
49.75
 20
162.0
 30
0.0
 11
49.75
 21
165.0
 31
0.0
  0
LINE
  5
C1
100
AcDbEntity
100
AcDbLine
  8
TEXT
 62
256
370
-1
  6
ByLayer
 10
49.75
 20
165.0
 30
0.0
 11
51.0
 21
165.0
 31
0.0
  0
ARC
  5
C2
100
AcDbEntity
  8
TEXT
 62
256
370
-1
  6
ByLayer
100
AcDbCircle
 10
51.0
 20
164.25
 30
0.0
 40
0.75
100
AcDbArc
 50
0.0
 51
90.0
  0
LINE
  5
C3
100
AcDbEntity
100
AcDbLine
  8
TEXT
 62
256
370
-1
  6
ByLayer
 10
51.75
 20
164.25
 30
0.0
 11
51.75
 21
162.0
 31
0.0
  0
LINE
  5
C4
100
AcDbEntity
100
AcDbLine
  8
TEXT
 62
256
370
-1
  6
ByLayer
 10
53.25
 20
162.0
 30
0.0
 11
53.25
 21
165.0
 31
0.0
  0
LINE
  5
C5
100
AcDbEntity
100
AcDbLine
  8
TEXT
 62
256
370
-1
  6
ByLayer
 10
53.25
 20
166.25
 30
0.0
 11
53.25
 21
166.5
 31
0.0
  0
LINE
  5
C6
100
AcDbEntity
100
AcDbLine
  8
TEXT
 62
256
370
-1
  6
ByLayer
 10
55.0
 20
165.0
 30
0.0
 11
56.0
 21
165.0
 31
0.0
  0
ARC
  5
C7
100
AcDbEntity
  8
TEXT
 62
256
370
-1
  6
ByLayer
100
AcDbCircle
 10
56.0
 20
164.25
 30
0.0
 40
0.75
100
AcDbArc
 50
0.0
 51
90.0
  0
LINE
  5
C8
100
AcDbEntity
100
AcDbLine
  8
TEXT
 62
256
370
-1
  6
ByLayer
 10
56.75
 20
164.25
 30
0.0
 11
56.75
 21
162.0
 31
0.0
  0
LINE
  5
C9
100
AcDbEntity
100
AcDbLine
  8
TEXT
 62
256
370
-1
  6
ByLayer
 10
56.75
 20
162.0
 30
0.0
 11
55.5
 21
162.0
 31
0.0
  0
ARC
  5
CA
100
AcDbEntity
  8
TEXT
 62
256
370
-1
  6
ByLayer
100
AcDbCircle
 10
55.5
 20
162.75
 30
0.0
 40
0.75
100
AcDbArc
 50
90.0
 51
270.0
  0
LINE
  5
CB
100
AcDbEntity
100
AcDbLine
  8
TEXT
 62
256
370
-1
  6
ByLayer
 10
55.5
 20
163.5
 30
0.0
 11
56.75
 21
163.5
 31
0.0
  0
LINE
  5
CC
100
AcDbEntity
100
AcDbLine
  8
TEXT
 62
256
370
-1
  6
ByLayer
 10
61.625
 20
162.0
 30
0.0
 11
62.875
 21
162.0
 31
0.0
  0
ARC
  5
CD
100
AcDbEntity
  8
TEXT
 62
256
370
-1
  6
ByLayer
100
AcDbCircle
 10
62.875
 20
162.75
 30
0.0
 40
0.75
100
AcDbArc
 50
270.0
 51
0.0
  0
LINE
  5
CE
100
AcDbEntity
100
AcDbLine
  8
TEXT
 62
256
370
-1
  6
ByLayer
 10
63.625
 20
162.75
 30
0.0
 11
63.625
 21
164.25
 31
0.0
  0
ARC
  5
CF
100
AcDbEntity
  8
TEXT
 62
256
370
-1
  6
ByLayer
100
AcDbCircle
 10
62.875
 20
164.25
 30
0.0
 40
0.75
100
AcDbArc
 50
0.0
 51
90.0
  0
LINE
  5
D0
100
AcDbEntity
100
AcDbLine
  8
TEXT
 62
256
370
-1
  6
ByLayer
 10
62.875
 20
165.0
 30
0.0
 11
61.625
 21
165.0
 31
0.0
  0
LINE
  5
D1
100
AcDbEntity
100
AcDbLine
  8
TEXT
 62
256
370
-1
  6
ByLayer
 10
61.625
 20
165.0
 30
0.0
 11
61.625
 21
160.5
 31
0.0
  0
LINE
  5
D2
100
AcDbEntity
100
AcDbLine
  8
TEXT
 62
256
370
-1
  6
ByLayer
 10
65.125
 20
163.5
 30
0.0
 11
67.125
 21
163.5
 31
0.0
  0
LINE
  5
D3
100
AcDbEntity
100
AcDbLine
  8
TEXT
 62
256
370
-1
  6
ByLayer
 10
67.125
 20
163.5
 30
0.0
 11
67.125
 21
164.0
 31
0.0
  0
ARC
  5
D4
100
AcDbEntity
  8
TEXT
 62
256
370
-1
  6
ByLayer
100
AcDbCircle
 10
66.125
 20
164.0
 30
0.0
 40
1.0
100
AcDbArc
 50
0.0
 51
180.0
  0
LINE
  5
D5
100
AcDbEntity
100
AcDbLine
  8
TEXT
 62
256
370
-1
  6
ByLayer
 10
65.125
 20
164.0
 30
0.0
 11
65.125
 21
162.75
 31
0.0
  0
ARC
  5
D6
100
AcDbEntity
  8
TEXT
 62
256
370
-1
  6
ByLayer
100
AcDbCircle
 10
65.875
 20
162.75
 30
0.0
 40
0.75
100
AcDbArc
 50
180.0
 51
270.0
  0
LINE
  5
D7
100
AcDbEntity
100
AcDbLine
  8
TEXT
 62
256
370
-1
  6
ByLayer
 10
65.875
 20
162.0
 30
0.0
 11
67.125
 21
162.0
 31
0.0
  0
LINE
  5
D8
100
AcDbEntity
100
AcDbLine
  8
TEXT
 62
256
370
-1
  6
ByLayer
 10
68.625
 20
162.0
 30
0.0
 11
68.625
 21
165.0
 31
0.0
  0
LINE
  5
D9
100
AcDbEntity
100
AcDbLine
  8
TEXT
 62
256
370
-1
  6
ByLayer
 10
68.625
 20
165.0
 30
0.0
 11
69.625
 21
165.0
 31
0.0
  0
ARC
  5
DA
100
AcDbEntity
  8
TEXT
 62
256
370
-1
  6
ByLayer
100
AcDbCircle
 10
69.625
 20
164.5
 30
0.0
 40
0.5
100
AcDbArc
 50
0.0
 51
90.0
  0
LINE
  5
DB
100
AcDbEntity
100
AcDbLine
  8
TEXT
 62
256
370
-1
  6
ByLayer
 10
71.625
 20
162.0
 30
0.0
 11
72.875
 21
162.0
 31
0.0
  0
ARC
  5
DC
100
AcDbEntity
  8
TEXT
 62
256
370
-1
  6
ByLayer
100
AcDbCircle
 10
72.875
 20
162.75
 30
0.0
 40
0.75
100
AcDbArc
 50
270.0
 51
0.0
  0
LINE
  5
DD
100
AcDbEntity
100
AcDbLine
  8
TEXT
 62
256
370
-1
  6
ByLayer
 10
73.625
 20
162.75
 30
0.0
 11
73.625
 21
164.25
 31
0.0
  0
ARC
  5
DE
100
AcDbEntity
  8
TEXT
 62
256
370
-1
  6
ByLayer
100
AcDbCircle
 10
72.875
 20
164.25
 30
0.0
 40
0.75
100
AcDbArc
 50
0.0
 51
90.0
  0
LINE
  5
DF
100
AcDbEntity
100
AcDbLine
  8
TEXT
 62
256
370
-1
  6
ByLayer
 10
72.875
 20
165.0
 30
0.0
 11
71.625
 21
165.0
 31
0.0
  0
LINE
  5
E0
100
AcDbEntity
100
AcDbLine
  8
TEXT
 62
256
370
-1
  6
ByLayer
 10
71.625
 20
165.0
 30
0.0
 11
71.625
 21
160.5
 31
0.0
  0
LINE
  5
E1
100
AcDbEntity
100
AcDbLine
  8
TEXT
 62
256
370
-1
  6
ByLayer
 10
75.125
 20
163.5
 30
0.0
 11
77.125
 21
163.5
 31
0.0
  0
LINE
  5
E2
100
AcDbEntity
100
AcDbLine
  8
TEXT
 62
256
370
-1
  6
ByLayer
 10
77.125
 20
163.5
 30
0.0
 11
77.125
 21
164.0
 31
0.0
  0
ARC
  5
E3
100
AcDbEntity
  8
TEXT
 62
256
370
-1
  6
ByLayer
100
AcDbCircle
 10
76.125
 20
164.0
 30
0.0
 40
1.0
100
AcDbArc
 50
0.0
 51
180.0
  0
LINE
  5
E4
100
AcDbEntity
100
AcDbLine
  8
TEXT
 62
256
370
-1
  6
ByLayer
 10
75.125
 20
164.0
 30
0.0
 11
75.125
 21
162.75
 31
0.0
  0
ARC
  5
E5
100
AcDbEntity
  8
TEXT
 62
256
370
-1
  6
ByLayer
100
AcDbCircle
 10
75.875
 20
162.75
 30
0.0
 40
0.75
100
AcDbArc
 50
180.0
 51
270.0
  0
LINE
  5
E6
100
AcDbEntity
100
AcDbLine
  8
TEXT
 62
256
370
-1
  6
ByLayer
 10
75.875
 20
162.0
 30
0.0
 11
77.125
 21
162.0
 31
0.0
  0
LINE
  5
E7
100
AcDbEntity
100
AcDbLine
  8
TEXT
 62
256
370
-1
  6
ByLayer
 10
78.625
 20
162.0
 30
0.0
 11
78.625
 21
165.0
 31
0.0
  0
LINE
  5
E8
100
AcDbEntity
100
AcDbLine
  8
TEXT
 62
256
370
-1
  6
ByLayer
 10
78.625
 20
165.0
 30
0.0
 11
79.875
 21
165.0
 31
0.0
  0
ARC
  5
E9
100
AcDbEntity
  8
TEXT
 62
256
370
-1
  6
ByLayer
100
AcDbCircle
 10
79.875
 20
164.25
 30
0.0
 40
0.75
100
AcDbArc
 50
0.0
 51
90.0
  0
LINE
  5
EA
100
AcDbEntity
100
AcDbLine
  8
TEXT
 62
256
370
-1
  6
ByLayer
 10
80.625
 20
164.25
 30
0.0
 11
80.625
 21
162.0
 31
0.0
  0
LINE
  5
EB
100
AcDbEntity
100
AcDbLine
  8
TEXT
 62
256
370
-1
  6
ByLayer
 10
84.125
 20
166.5
 30
0.0
 11
84.125
 21
162.0
 31
0.0
  0
LINE
  5
EC
100
AcDbEntity
100
AcDbLine
  8
TEXT
 62
256
370
-1
  6
ByLayer
 10
84.125
 20
162.0
 30
0.0
 11
82.875
 21
162.0
 31
0.0
  0
ARC
  5
ED
100
AcDbEntity
  8
TEXT
 62
256
370
-1
  6
ByLayer
100
AcDbCircle
 10
82.875
 20
162.75
 30
0.0
 40
0.75
100
AcDbArc
 50
180.0
 51
270.0
  0
LINE
  5
EE
100
AcDbEntity
100
AcDbLine
  8
TEXT
 62
256
370
-1
  6
ByLayer
 10
82.125
 20
162.75
 30
0.0
 11
82.125
 21
164.25
 31
0.0
  0
ARC
  5
EF
100
AcDbEntity
  8
TEXT
 62
256
370
-1
  6
ByLayer
100
AcDbCircle
 10
82.875
 20
164.25
 30
0.0
 40
0.75
100
AcDbArc
 50
90.0
 51
180.0
  0
LINE
  5
F0
100
AcDbEntity
100
AcDbLine
  8
TEXT
 62
256
370
-1
  6
ByLayer
 10
82.875
 20
165.0
 30
0.0
 11
84.125
 21
165.0
 31
0.0
  0
LINE
  5
F1
100
AcDbEntity
100
AcDbLine
  8
TEXT
 62
256
370
-1
  6
ByLayer
 10
85.625
 20
162.0
 30
0.0
 11
85.625
 21
165.0
 31
0.0
  0
LINE
  5
F2
100
AcDbEntity
100
AcDbLine
  8
TEXT
 62
256
370
-1
  6
ByLayer
 10
85.625
 20
166.25
 30
0.0
 11
85.625
 21
166.5
 31
0.0
  0
LINE
  5
F3
100
AcDbEntity
100
AcDbLine
  8
TEXT
 62
256
370
-1
  6
ByLayer
 10
88.625
 20
165.0
 30
0.0
 11
87.875
 21
165.0
 31
0.0
  0
ARC
  5
F4
100
AcDbEntity
  8
TEXT
 62
256
370
-1
  6
ByLayer
100
AcDbCircle
 10
87.875
 20
164.25
 30
0.0
 40
0.75
100
AcDbArc
 50
90.0
 51
180.0
  0
LINE
  5
F5
100
AcDbEntity
100
AcDbLine
  8
TEXT
 62
256
370
-1
  6
ByLayer
 10
87.125
 20
164.25
 30
0.0
 11
87.125
 21
162.75
 31
0.0
  0
ARC
  5
F6
100
AcDbEntity
  8
TEXT
 62
256
370
-1
  6
ByLayer
100
AcDbCircle
 10
87.875
 20
162.75
 30
0.0
 40
0.75
100
AcDbArc
 50
180.0
 51
270.0
  0
LINE
  5
F7
100
AcDbEntity
100
AcDbLine
  8
TEXT
 62
256
370
-1
  6
ByLayer
 10
87.875
 20
162.0
 30
0.0
 11
88.625
 21
162.0
 31
0.0
  0
LINE
  5
F8
100
AcDbEntity
100
AcDbLine
  8
TEXT
 62
256
370
-1
  6
ByLayer
 10
90.125
 20
165.0
 30
0.0
 11
90.125
 21
162.75
 31
0.0
  0
ARC
  5
F9
100
AcDbEntity
  8
TEXT
 62
256
370
-1
  6
ByLayer
100
AcDbCircle
 10
90.875
 20
162.75
 30
0.0
 40
0.75
100
AcDbArc
 50
180.0
 51
270.0
  0
LINE
  5
FA
100
AcDbEntity
100
AcDbLine
  8
TEXT
 62
256
370
-1
  6
ByLayer
 10
90.875
 20
162.0
 30
0.0
 11
92.125
 21
162.0
 31
0.0
  0
LINE
  5
FB
100
AcDbEntity
100
AcDbLine
  8
TEXT
 62
256
370
-1
  6
ByLayer
 10
92.125
 20
162.0
 30
0.0
 11
92.125
 21
165.0
 31
0.0
  0
LINE
  5
FC
100
AcDbEntity
100
AcDbLine
  8
TEXT
 62
256
370
-1
  6
ByLayer
 10
93.625
 20
166.5
 30
0.0
 11
93.625
 21
162.5
 31
0.0
  0
ARC
  5
FD
100
AcDbEntity
  8
TEXT
 62
256
370
-1
  6
ByLayer
100
AcDbCircle
 10
94.125
 20
162.5
 30
0.0
 40
0.5
100
AcDbArc
 50
180.0
 51
270.0
  0
LINE
  5
FE
100
AcDbEntity
100
AcDbLine
  8
TEXT
 62
256
370
-1
  6
ByLayer
 10
95.875
 20
165.0
 30
0.0
 11
96.875
 21
165.0
 31
0.0
  0
ARC
  5
FF
100
AcDbEntity
  8
TEXT
 62
256
370
-1
  6
ByLayer
100
AcDbCircle
 10
96.875
 20
164.25
 30
0.0
 40
0.75
100
AcDbArc
 50
0.0
 51
90.0
  0
LINE
  5
100
100
AcDbEntity
100
AcDbLine
  8
TEXT
 62
256
370
-1
  6
ByLayer
 10
97.625
 20
164.25
 30
0.0
 11
97.625
 21
162.0
 31
0.0
  0
LINE
  5
101
100
AcDbEntity
100
AcDbLine
  8
TEXT
 62
256
370
-1
  6
ByLayer
 10
97.625
 20
162.0
 30
0.0
 11
96.375
 21
162.0
 31
0.0
  0
ARC
  5
102
100
AcDbEntity
  8
TEXT
 62
256
370
-1
  6
ByLayer
100
AcDbCircle
 10
96.375
 20
162.75
 30
0.0
 40
0.75
100
AcDbArc
 50
90.0
 51
270.0
  0
LINE
  5
103
100
AcDbEntity
100
AcDbLine
  8
TEXT
 62
256
370
-1
  6
ByLayer
 10
96.375
 20
163.5
 30
0.0
 11
97.625
 21
163.5
 31
0.0
  0
LINE
  5
104
100
AcDbEntity
100
AcDbLine
  8
TEXT
 62
256
370
-1
  6
ByLayer
 10
99.125
 20
162.0
 30
0.0
 11
99.125
 21
165.0
 31
0.0
  0
LINE
  5
105
100
AcDbEntity
100
AcDbLine
  8
TEXT
 62
256
370
-1
  6
ByLayer
 10
99.125
 20
165.0
 30
0.0
 11
100.125
 21
165.0
 31
0.0
  0
ARC
  5
106
100
AcDbEntity
  8
TEXT
 62
256
370
-1
  6
ByLayer
100
AcDbCircle
 10
100.125
 20
164.5
 30
0.0
 40
0.5
100
AcDbArc
 50
0.0
 51
90.0
  0
LINE
  5
107
100
AcDbEntity
100
AcDbLine
  8
TEXT
 62
256
370
-1
  6
ByLayer
 10
48.25
 20
166.25
 30
0.0
 11
48.7078160145208301
 21
166.6842047211285092
 31
0.0
  0
LINE
  5
108
100
AcDbEntity
100
AcDbLine
  8
TEXT
 62
256
370
-1
  6
ByLayer
 10
211.7155024816197511
 20
78.4444667968137423
 30
0.0
 11
211.2064002523408419
 21
78.8687186545461856
 31
0.0
  0
LINE
  5
109
100
AcDbEntity
100
AcDbLine
  8
RESPOSTA
 62
3
370
-1
  6
ByLayer
 10
128.4160598671479647
 20
182.9342148244626856
 30
0.0
 11
127.7796820805493354
 21
183.4645296466282218
 31
0.0
  0
ENDSEC
  0
SECTION
  2
OBJECTS
  0
DICTIONARY
  5
C
100
AcDbDictionary
280
0
281
1
  3
ACAD_GROUP
350
D
  3
ACAD_LAYOUT
350
1A
  3
ACAD_MLINESTYLE
350
17
  3
ACAD_PLOTSETTINGS
350
19
  3
ACAD_PLOTSTYLENAME
350
E
  3
AcDbVariableDictionary
350
10A
  0
DICTIONARY
  5
D
100
AcDbDictionary
280
0
281
1
  0
ACDBDICTIONARYWDFLT
  5
E
100
AcDbDictionary
281
1
  3
Normal
350
F
100
AcDbDictionaryWithDefault
340
F
  0
ACDBPLACEHOLDER
  5
F
  0
DICTIONARY
  5
17
100
AcDbDictionary
280
0
281
1
  3
Standard
350
18
  0
MLINESTYLE
  5
18
100
AcDbMlineStyle
  2
STANDARD
 70
0
  3

 62
256
 51
90.0
 52
90.0
 71
2
 49
0.5
 62
256
  6
BYLAYER
 49
-0.5
 62
256
  6
BYLAYER
  0
DICTIONARY
  5
19
100
AcDbDictionary
280
0
281
1
  0
DICTIONARY
  5
1A
100
AcDbDictionary
281
1
  3
Layout1
350
1E
  3
Layout2
350
26
  3
Model
350
22
  0
LAYOUT
  5
1E
100
AcDbPlotSettings
  1

  2
C:\Program Files\AutoCAD 2002\plotters\DWF ePlot (optimized for plotting).pc3
  4

  6

 40
0.0
 41
0.0
 42
0.0
 43
0.0
 44
0.0
 45
0.0
 46
0.0
 47
0.0
 48
0.0
 49
0.0
140
0.0
141
0.0
142
1.0
143
1.0
 70
688
 72
0
 73
0
 74
5
  7

 75
16
147
1.0
148
0.0
149
0.0
100
AcDbLayout
  1
Layout1
 70
1
 71
1
 10
0.0
 20
0.0
 11
420.0
 21
297.0
 12
0.0
 22
0.0
 32
0.0
 14
100000000000000000000.0
 24
100000000000000000000.0
 34
100000000000000000000.0
 15
-100000000000000000000.0
 25
-100000000000000000000.0
 35
-100000000000000000000.0
146
0.0
 13
0.0
 23
0.0
 33
0.0
 16
1.0
 26
0.0
 36
0.0
 17
0.0
 27
1.0
 37
0.0
 76
0
330
1B
  0
LAYOUT
  5
22
100
AcDbPlotSettings
  1

  2
C:\Program Files\AutoCAD 2002\plotters\DWF ePlot (optimized for plotting).pc3
  4

  6

 40
0.0
 41
0.0
 42
0.0
 43
0.0
 44
0.0
 45
0.0
 46
0.0
 47
0.0
 48
0.0
 49
0.0
140
0.0
141
0.0
142
1.0
143
1.0
 70
1712
 72
0
 73
0
 74
0
  7

 75
0
147
1.0
148
0.0
149
0.0
100
AcDbLayout
  1
Model
 70
1
 71
0
 10
0.0
 20
0.0
 11
12.0
 21
9.0
 12
0.0
 22
0.0
 32
0.0
 14
0.0
 24
0.0
 34
0.0
 15
0.0
 25
0.0
 35
0.0
146
0.0
 13
0.0
 23
0.0
 33
0.0
 16
1.0
 26
0.0
 36
0.0
 17
0.0
 27
1.0
 37
0.0
 76
0
330
1F
  0
LAYOUT
  5
26
100
AcDbPlotSettings
  1

  2
C:\Program Files\AutoCAD 2002\plotters\DWF ePlot (optimized for plotting).pc3
  4

  6

 40
0.0
 41
0.0
 42
0.0
 43
0.0
 44
0.0
 45
0.0
 46
0.0
 47
0.0
 48
0.0
 49
0.0
140
0.0
141
0.0
142
1.0
143
1.0
 70
688
 72
0
 73
0
 74
5
  7

 75
16
147
1.0
148
0.0
149
0.0
100
AcDbLayout
  1
Layout2
 70
1
 71
2
 10
0.0
 20
0.0
 11
12.0
 21
9.0
 12
0.0
 22
0.0
 32
0.0
 14
0.0
 24
0.0
 34
0.0
 15
0.0
 25
0.0
 35
0.0
146
0.0
 13
0.0
 23
0.0
 33
0.0
 16
1.0
 26
0.0
 36
0.0
 17
0.0
 27
1.0
 37
0.0
 76
0
330
23
  0
DICTIONARY
  5
10A
100
AcDbDictionary
281
1
  3
DIMASSOC
350
10C
  3
HIDETEXT
350
10B
  0
DICTIONARYVAR
  5
10B
100
DictionaryVariables
280
0
  1
2
  0
DICTIONARYVAR
  5
10C
100
DictionaryVariables
280
0
  1
1
  0
ENDSEC
  0
EOF
