999
dxflib 2.0.4.8
  0
SECTION
  2
HEADER
  9
$ACADVER
  1
AC1015
  9
$HANDSEED
  5
FFFF
  9
$DIMTAD
 70
0
  9
$DIMTDEC
 70
2
  9
$USERR4
 40
0.0
  9
$CLAYER
  8
RESPOSTA
  9
$DIMALTZ
 70
0
  9
$MENU
  1
acad
  9
$CHAMFERA
 40
0.0
  9
$UCSYDIR
 10
0.0
 20
1.0
 30
0.0
  9
$USERR5
 40
0.0
  9
$SHADEDIF
 70
70
  9
$TILEMODE
 70
1
  9
$VISRETAIN
 70
1
  9
$CMLSTYLE
  2
Standard
  9
$EXTMIN
 10
0.0
 20
-0.0000000000000749
 30
0.0
  9
$ORTHOMODE
 70
0
  9
$REGENMODE
 70
1
  9
$TRACEWID
 40
1.0
  9
$DIMASZ
 40
3.5
  9
$DIMUPT
 70
0
  9
$DIMADEC
 70
0
  9
$CHAMFERB
 40
0.0
  9
$UCSXDIR
 10
1.0
 20
0.0
 30
0.0
  9
$OLESTARTUP
290
0
  9
$DIMSHO
 70
0
  9
$DIMALT
 70
0
  9
$DIMSAH
 70
0
  9
$DIMTFAC
 40
1.0
  9
$DIMGAP
 40
0.09
  9
$SKETCHINC
 40
1.0
  9
$CHAMFERC
 40
0.0
  9
$USRTIMER
 70
1
  9
$ANGBASE
 50
0.0
  9
$PUCSYDIR
 10
0.0
 20
1.0
 30
0.0
  9
$CMLJUST
 70
0
  9
$MEASUREMENT
 70
0
  9
$ENDCAPS
280
0
  9
$LIMMIN
 10
0.0
 20
0.0
  9
$DIMTSZ
 40
0.0
  9
$DIMALTTD
 70
2
  9
$DIMALTRND
 40
0.0
  9
$CHAMFERD
 40
0.0
  9
$SPLFRAME
 70
0
  9
$SURFTYPE
 70
6
  9
$PUCSXDIR
 10
1.0
 20
0.0
 30
0.0
  9
$LWDISPLAY
290
0
  9
$VERSIONGUID
  2
{D205B82A-2ED8-4709-8E61-5331FF6E182F}
  9
$DWGCODEPAGE
  3
ANSI_1252
  9
$LUNITS
 70
2
  9
$AUPREC
 70
0
  9
$SPLINESEGS
 70
8
  9
$SURFTAB1
 70
6
  9
$CELWEIGHT
370
-1
  9
$INSBASE
 10
0.0
 20
184.0
 30
0.0
  9
$DIMRND
 40
0.0
  9
$DIMCEN
 40
1.5
  9
$DIMDSEP
 70
46
  9
$ELEVATION
 40
0.0
  9
$SKPOLY
 70
0
  9
$TDUCREATE
 40
2451876.9613475687801838
  9
$TDUUPDATE
 40
2454221.3422292708419263
  9
$SURFTAB2
 70
6
  9
$UCSORTHOVIEW
 70
0
  9
$USERI1
 70
0
  9
$UNITMODE
 70
0
  9
$PSTYLEMODE
290
1
  9
$EXTMAX
 10
253.0
 20
182.000000000000199
 30
0.0
  9
$FILLMODE
 70
1
  9
$TEXTSIZE
 40
5.0
  9
$DIMEXO
 40
0.1
  9
$PELEVATION
 40
0.0
  9
$UCSORG
 10
0.0
 20
0.0
 30
0.0
  9
$UCSORGRIGHT
 10
0.0
 20
0.0
 30
0.0
  9
$USERI2
 70
0
  9
$INSUNITS
 70
0
  9
$DIMSCALE
 40
1.0
  9
$DIMDLE
 40
0.0
  9
$DIMZIN
 70
0
  9
$DIMTOLJ
 70
1
  9
$DIMTZIN
 70
0
  9
$DIMLWD
 70
-2
  9
$TDUSRTIMER
 40
0.0005873843
  9
$ANGDIR
 70
0
  9
$SURFU
 70
6
  9
$PUCSORGBOTTOM
 10
0.0
 20
0.0
 30
0.0
  9
$USERI3
 70
0
  9
$JOINSTYLE
280
0
  9
$ACADMAINTVER
 70
20
  9
$LIMMAX
 10
250.0
 20
184.0
  9
$QTEXTMODE
 70
0
  9
$DIMJUST
 70
0
  9
$DIMALTTZ
 70
0
  9
$DIMATFIT
 70
3
  9
$DIMLUNIT
 70
2
  9
$DIMLWE
 70
-2
  9
$SURFV
 70
6
  9
$USERI4
 70
0
  9
$WORLDVIEW
 70
1
  9
$GRIDMODE
 70
0
  9
$ATTMODE
 70
1
  9
$DIMTXT
 40
3.5
  9
$DIMLIM
 70
0
  9
$DIMSE1
 70
0
  9
$DIMAZIN
 70
0
  9
$THICKNESS
 40
0.0
  9
$LIMCHECK
 70
0
  9
$PDMODE
 70
34
  9
$UCSORGTOP
 10
0.0
 20
0.0
 30
0.0
  9
$USERI5
 70
0
  9
$PROXYGRAPHICS
 70
1
  9
$EXTNAMES
290
1
  9
$CELTYPE
  6
ByLayer
  9
$DIMTOH
 70
1
  9
$DIMSE2
 70
0
  9
$DIMLFAC
 40
1.0
  9
$DIMSOXD
 70
0
  9
$LUPREC
 70
2
  9
$TDINDWG
 40
0.0005873843
  9
$SPLINETYPE
 70
6
  9
$PUCSORG
 10
0.0
 20
0.0
 30
0.0
  9
$PEXTMIN
 10
100000000000000000000.0
 20
100000000000000000000.0
 30
100000000000000000000.0
  9
$PEXTMAX
 10
-100000000000000000000.0
 20
-100000000000000000000.0
 30
-100000000000000000000.0
  9
$XEDIT
290
1
  9
$CECOLOR
 62
256
  9
$DISPSILH
 70
0
  9
$DIMDLI
 40
7.0
  9
$DIMTM
 40
0.0
  9
$DIMASO
 70
1
  9
$DIMTVP
 40
0.0
  9
$DIMSTYLE
  2
STANDARD
  9
$DIMFRAC
 70
0
  9
$PLINEWID
 40
0.0
  9
$PUCSORGRIGHT
 10
0.0
 20
0.0
 30
0.0
  9
$PLIMCHECK
 70
0
  9
$FINGERPRINTGUID
  2
{2453D6E2-04AF-4061-8866-25A980F4B851}
  9
$PSVPSCALE
 40
0.0
  9
$LTSCALE
 40
25.0
  9
$DIMTIH
 70
1
  9
$DIMALTD
 70
2
  9
$DIMCLRT
 70
0
  9
$DIMDEC
 70
2
  9
$DIMALTU
 70
2
  9
$FILLETRAD
 40
0.0
  9
$TDUPDATE
 40
2454221.4255626038648188
  9
$UCSORGLEFT
 10
0.0
 20
0.0
 30
0.0
  9
$UCSORGBACK
 10
0.0
 20
0.0
 30
0.0
  9
$MAXACTVP
 70
48
  9
$PLIMMIN
 10
0.0
 20
0.0
  9
$PLIMMAX
 10
12.0
 20
9.0
  9
$TREEDEPTH
 70
3020
  9
$CELTSCALE
 40
1.0
  9
$DIMEXE
 40
1.8
  9
$DIMCLRD
 70
0
  9
$DIMTXSTY
  7
STANDARD
  9
$PDSIZE
 40
7.0
  9
$PUCSORTHOVIEW
 70
0
  9
$USERR1
 40
0.0
  9
$PINSBASE
 10
0.0
 20
0.0
 30
0.0
  9
$CMLSCALE
 40
1.0
  9
$CEPSNTYPE
380
0
  9
$TEXTSTYLE
  7
STANDARD
  9
$DIMTP
 40
0.0
  9
$DIMTOL
 70
0
  9
$DIMALTF
 40
25.3999999999999986
  9
$DIMTOFL
 70
0
  9
$DIMCLRE
 70
0
  9
$DIMSD1
 70
0
  9
$DIMAUNIT
 70
0
  9
$DIMTMOVE
 70
2
  9
$TDCREATE
 40
2451877.0446809032000601
  9
$UCSORGFRONT
 10
0.0
 20
0.0
 30
0.0
  9
$PUCSORGTOP
 10
0.0
 20
0.0
 30
0.0
  9
$USERR2
 40
0.0
  9
$SHADEDGE
 70
3
  9
$PLINEGEN
 70
0
  9
$PSLTSCALE
 70
0
  9
$MIRRTEXT
 70
1
  9
$DIMTIX
 70
0
  9
$DIMSD2
 70
0
  9
$AUNITS
 70
0
  9
$UCSORGBOTTOM
 10
0.0
 20
0.0
 30
0.0
  9
$PUCSORGLEFT
 10
0.0
 20
0.0
 30
0.0
  9
$PUCSORGFRONT
 10
0.0
 20
0.0
 30
0.0
  9
$PUCSORGBACK
 10
0.0
 20
0.0
 30
0.0
  9
$USERR3
 40
0.0
  0
ENDSEC
  0
SECTION
  2
TABLES
  0
TABLE
  2
VPORT
  5
8
100
AcDbSymbolTable
 70
1
  0
VPORT
  5
30
100
AcDbSymbolTableRecord
100
AcDbViewportTableRecord
  2
*Active
 70
0
 10
0.0
 20
0.0
 11
1.0
 21
1.0
 12
286.3055555555554861
 22
148.5
 13
0.0
 23
0.0
 14
10.0
 24
10.0
 15
10.0
 25
10.0
 16
0.0
 26
0.0
 36
1.0
 17
0.0
 27
0.0
 37
0.0
 40
297.0
 41
1.92798353909465
 42
50.0
 43
0.0
 44
0.0
 50
0.0
 51
0.0
 71
0
 72
100
 73
1
 74
3
 75
1
 76
1
 77
0
 78
0
281
0
 65
1
110
0.0
120
0.0
130
0.0
111
1.0
121
0.0
131
0.0
112
0.0
122
1.0
132
0.0
 79
0
146
0.0
  0
ENDTAB
  0
TABLE
  2
LTYPE
  5
5
100
AcDbSymbolTable
 70
21
  0
LTYPE
  5
14
100
AcDbSymbolTableRecord
100
AcDbLinetypeTableRecord
  2
ByBlock
 70
0
  3

 72
65
 73
0
 40
0.0
  0
LTYPE
  5
15
100
AcDbSymbolTableRecord
100
AcDbLinetypeTableRecord
  2
ByLayer
 70
0
  3

 72
65
 73
0
 40
0.0
  0
LTYPE
  5
16
100
AcDbSymbolTableRecord
100
AcDbLinetypeTableRecord
  2
CONTINUOUS
 70
0
  3
Solid line
 72
65
 73
0
 40
0.0
  0
LTYPE
  5
31
100
AcDbSymbolTableRecord
100
AcDbLinetypeTableRecord
  2
DOT
 70
0
  3
Dot . . . . . . . . . . . . . . . . . . . . . .
 72
65
 73
2
 40
6.3499999999999996
 49
0.0
 74
0
 49
-6.3499999999999996
 74
0
  0
LTYPE
  5
32
100
AcDbSymbolTableRecord
100
AcDbLinetypeTableRecord
  2
DOT2
 70
0
  3
Dot (.5x) .....................................
 72
65
 73
2
 40
3.1749999999999998
 49
0.0
 74
0
 49
-3.1749999999999998
 74
0
  0
LTYPE
  5
33
100
AcDbSymbolTableRecord
100
AcDbLinetypeTableRecord
  2
DOTX2
 70
0
  3
Dot (2x) .  .  .  .  .  .  .  .  .  .  .  .  .
 72
65
 73
2
 40
12.6999999999999993
 49
0.0
 74
0
 49
-12.6999999999999993
 74
0
  0
LTYPE
  5
34
100
AcDbSymbolTableRecord
100
AcDbLinetypeTableRecord
  2
DASHED
 70
0
  3
Dashed __ __ __ __ __ __ __ __ __ __ __ __ __ _
 72
65
 73
2
 40
19.0500000000000007
 49
12.6999999999999993
 74
0
 49
-6.3499999999999996
 74
0
  0
LTYPE
  5
35
100
AcDbSymbolTableRecord
100
AcDbLinetypeTableRecord
  2
DASHED2
 70
0
  3
Dashed (.5x) _ _ _ _ _ _ _ _ _ _ _ _ _ _ _ _ _
 72
65
 73
2
 40
9.5250000000000004
 49
6.3499999999999996
 74
0
 49
-3.1749999999999998
 74
0
  0
LTYPE
  5
36
100
AcDbSymbolTableRecord
100
AcDbLinetypeTableRecord
  2
DASHEDX2
 70
0
  3
Dashed (2x) ____  ____  ____  ____  ____  ___
 72
65
 73
2
 40
38.1000000000000014
 49
25.3999999999999986
 74
0
 49
-12.6999999999999993
 74
0
  0
LTYPE
  5
37
100
AcDbSymbolTableRecord
100
AcDbLinetypeTableRecord
  2
DASHDOT
 70
0
  3
Dash dot __ . __ . __ . __ . __ . __ . __ . __
 72
65
 73
4
 40
25.3999999999999986
 49
12.6999999999999993
 74
0
 49
-6.3499999999999996
 74
0
 49
0.0
 74
0
 49
-6.3499999999999996
 74
0
  0
LTYPE
  5
38
100
AcDbSymbolTableRecord
100
AcDbLinetypeTableRecord
  2
DASHDOT2
 70
0
  3
Dash dot (.5x) _._._._._._._._._._._._._._._.
 72
65
 73
4
 40
12.6999999999999993
 49
6.3499999999999996
 74
0
 49
-3.1749999999999998
 74
0
 49
0.0
 74
0
 49
-3.1749999999999998
 74
0
  0
LTYPE
  5
39
100
AcDbSymbolTableRecord
100
AcDbLinetypeTableRecord
  2
DASHDOTX2
 70
0
  3
Dash dot (2x) ____  .  ____  .  ____  .  ___
 72
65
 73
4
 40
50.7999999999999972
 49
25.3999999999999986
 74
0
 49
-12.6999999999999993
 74
0
 49
0.0
 74
0
 49
-12.6999999999999993
 74
0
  0
LTYPE
  5
3A
100
AcDbSymbolTableRecord
100
AcDbLinetypeTableRecord
  2
DIVIDE
 70
0
  3
Divide ____ . . ____ . . ____ . . ____ . . ____
 72
65
 73
6
 40
31.75
 49
12.6999999999999993
 74
0
 49
-6.3499999999999996
 74
0
 49
0.0
 74
0
 49
-6.3499999999999996
 74
0
 49
0.0
 74
0
 49
-6.3499999999999996
 74
0
  0
LTYPE
  5
3B
100
AcDbSymbolTableRecord
100
AcDbLinetypeTableRecord
  2
DIVIDE2
 70
0
  3
Divide (.5x) __..__..__..__..__..__..__..__.._
 72
65
 73
6
 40
15.875
 49
6.3499999999999996
 74
0
 49
-3.1749999999999998
 74
0
 49
0.0
 74
0
 49
-3.1749999999999998
 74
0
 49
0.0
 74
0
 49
-3.1749999999999998
 74
0
  0
LTYPE
  5
3C
100
AcDbSymbolTableRecord
100
AcDbLinetypeTableRecord
  2
DIVIDEX2
 70
0
  3
Divide (2x) ________  .  .  ________  .  .  _
 72
65
 73
6
 40
63.5
 49
25.3999999999999986
 74
0
 49
-12.6999999999999993
 74
0
 49
0.0
 74
0
 49
-12.6999999999999993
 74
0
 49
0.0
 74
0
 49
-12.6999999999999993
 74
0
  0
LTYPE
  5
3D
100
AcDbSymbolTableRecord
100
AcDbLinetypeTableRecord
  2
CENTER
 70
0
  3
Center ____ _ ____ _ ____ _ ____ _ ____ _ ____
 72
65
 73
4
 40
50.7999999999999972
 49
31.75
 74
0
 49
-6.3499999999999996
 74
0
 49
6.3499999999999996
 74
0
 49
-6.3499999999999996
 74
0
  0
LTYPE
  5
3E
100
AcDbSymbolTableRecord
100
AcDbLinetypeTableRecord
  2
CENTER2
 70
0
  3
Center (.5x) ___ _ ___ _ ___ _ ___ _ ___ _ ___
 72
65
 73
4
 40
28.5749999999999993
 49
19.0500000000000007
 74
0
 49
-3.1749999999999998
 74
0
 49
3.1749999999999998
 74
0
 49
-3.1749999999999998
 74
0
  0
LTYPE
  5
3F
100
AcDbSymbolTableRecord
100
AcDbLinetypeTableRecord
  2
CENTERX2
 70
0
  3
Center (2x) ________  __  ________  __  _____
 72
65
 73
4
 40
101.5999999999999943
 49
63.5
 74
0
 49
-12.6999999999999993
 74
0
 49
12.6999999999999993
 74
0
 49
-12.6999999999999993
 74
0
  0
LTYPE
  5
40
100
AcDbSymbolTableRecord
100
AcDbLinetypeTableRecord
  2
BORDER
 70
0
  3
Border __ __ . __ __ . __ __ . __ __ . __ __ .
 72
65
 73
6
 40
44.4500000000000028
 49
12.6999999999999993
 74
0
 49
-6.3499999999999996
 74
0
 49
12.6999999999999993
 74
0
 49
-6.3499999999999996
 74
0
 49
0.0
 74
0
 49
-6.3499999999999996
 74
0
  0
LTYPE
  5
41
100
AcDbSymbolTableRecord
100
AcDbLinetypeTableRecord
  2
BORDER2
 70
0
  3
Border (.5x) __.__.__.__.__.__.__.__.__.__.__.
 72
65
 73
6
 40
22.2250000000000014
 49
6.3499999999999996
 74
0
 49
-3.1749999999999998
 74
0
 49
6.3499999999999996
 74
0
 49
-3.1749999999999998
 74
0
 49
0.0
 74
0
 49
-3.1749999999999998
 74
0
  0
LTYPE
  5
42
100
AcDbSymbolTableRecord
100
AcDbLinetypeTableRecord
  2
BORDERX2
 70
0
  3
Border (2x) ____  ____  .  ____  ____  .  ___
 72
65
 73
6
 40
88.9000000000000057
 49
25.3999999999999986
 74
0
 49
-12.6999999999999993
 74
0
 49
25.3999999999999986
 74
0
 49
-12.6999999999999993
 74
0
 49
0.0
 74
0
 49
-12.6999999999999993
 74
0
  0
ENDTAB
  0
TABLE
  2
LAYER
  5
2
100
AcDbSymbolTable
 70
4
  0
LAYER
  5
10
100
AcDbSymbolTableRecord
100
AcDbLayerTableRecord
  2
0
 70
0
 62
7
  6
CONTINUOUS
370
-3
390
F
  0
LAYER
  5
43
100
AcDbSymbolTableRecord
100
AcDbLayerTableRecord
  2
DIBUIX
 70
0
 62
5
  6
CONTINUOUS
370
-3
390
F
  0
LAYER
  5
44
100
AcDbSymbolTableRecord
100
AcDbLayerTableRecord
  2
RESPOSTA
 70
0
 62
1
  6
CONTINUOUS
370
-3
390
F
  0
LAYER
  5
45
100
AcDbSymbolTableRecord
100
AcDbLayerTableRecord
  2
TEXT
 70
0
 62
7
  6
CONTINUOUS
370
-3
390
F
  0
ENDTAB
  0
TABLE
  2
STYLE
  5
3
100
AcDbSymbolTable
 70
1
  0
STYLE
  5
11
100
AcDbSymbolTableRecord
100
AcDbTextStyleTableRecord
  2
Standard
 70
0
 40
0.0
 41
0.75
 50
0.0
 71
0
 42
2.5
  3
txt
  4

  0
ENDTAB
  0
TABLE
  2
VIEW
  5
6
100
AcDbSymbolTable
 70
0
  0
ENDTAB
  0
TABLE
  2
UCS
  5
7
100
AcDbSymbolTable
 70
0
  0
ENDTAB
  0
TABLE
  2
APPID
  5
9
100
AcDbSymbolTable
 70
1
  0
APPID
  5
12
100
AcDbSymbolTableRecord
100
AcDbRegAppTableRecord
  2
ACAD
 70
0
  0
ENDTAB
  0
TABLE
  2
DIMSTYLE
  5
A
100
AcDbSymbolTable
 70
1
100
AcDbDimStyleTable
 71
0
  0
DIMSTYLE
105
27
100
AcDbSymbolTableRecord
100
AcDbDimStyleTableRecord
  2
Standard
 41
3.5
 42
0.1
 43
3.75
 44
1.8
 70
0
 73
0
 74
0
 77
1
 78
8
140
3.5
141
2.5
143
0.03937007874016
147
0.09
171
3
172
1
271
2
272
2
274
3
278
44
283
0
284
8
340
11
  0
ENDTAB
  0
TABLE
  2
BLOCK_RECORD
  5
1
100
AcDbSymbolTable
 70
1
  0
BLOCK_RECORD
  5
1F
100
AcDbSymbolTableRecord
100
AcDbBlockTableRecord
  2
*Model_Space
340
22
  0
BLOCK_RECORD
  5
1B
100
AcDbSymbolTableRecord
100
AcDbBlockTableRecord
  2
*Paper_Space
340
1E
  0
BLOCK_RECORD
  5
23
100
AcDbSymbolTableRecord
100
AcDbBlockTableRecord
  2
*Paper_Space0
340
26
  0
ENDTAB
  0
ENDSEC
  0
SECTION
  2
BLOCKS
  0
BLOCK
  5
20
100
AcDbEntity
  8
0
100
AcDbBlockBegin
  2
*Model_Space
 70
0
 10
0.0
 20
0.0
 30
0.0
  3
*Model_Space
  1

  0
ENDBLK
  5
21
100
AcDbEntity
  8
0
100
AcDbBlockEnd
  0
BLOCK
  5
1C
100
AcDbEntity
 67
1
  8
0
100
AcDbBlockBegin
  2
*Paper_Space
 70
0
 10
0.0
 20
0.0
 30
0.0
  3
*Paper_Space
  1

  0
ENDBLK
  5
1D
100
AcDbEntity
 67
1
  8
0
100
AcDbBlockEnd
  0
BLOCK
  5
24
100
AcDbEntity
  8
0
100
AcDbBlockBegin
  2
*Paper_Space0
 70
0
 10
0.0
 20
0.0
 30
0.0
  3
*Paper_Space0
  1

  0
ENDBLK
  5
25
100
AcDbEntity
  8
0
100
AcDbBlockEnd
  0
ENDSEC
  0
SECTION
  2
ENTITIES
  0
LINE
  5
46
100
AcDbEntity
100
AcDbLine
  8
0
 62
256
370
-1
  6
ByLayer
 10
0.0
 20
0.0
 30
0.0
 11
253.0
 21
-0.0000000000000749
 31
0.0
  0
LINE
  5
47
100
AcDbEntity
100
AcDbLine
  8
0
 62
256
370
-1
  6
ByLayer
 10
253.0
 20
174.9999999999998863
 30
0.0
 11
0.0000000000000284
 21
175.0
 31
0.0
  0
LINE
  5
48
100
AcDbEntity
100
AcDbLine
  8
0
 62
256
370
-1
  6
ByLayer
 10
0.0
 20
87.5
 30
0.0
 11
253.0
 21
87.4999999999999432
 31
0.0
  0
MTEXT
  5
49
100
AcDbEntity
100
AcDbMText
  8
TEXT
 62
6
370
-1
  6
ByLayer
 10
13.8521389702495394
 20
101.5800827774986033
 30
0.0
 40
4.375
 41
100.0
 71
7
 72
2
  1
A
  7
STANDARD
 50
0.0000000000000013
 73
1
 44
1.0
  0
MTEXT
  5
4A
100
AcDbEntity
100
AcDbMText
  8
TEXT
 62
6
370
-1
  6
ByLayer
 10
54.1141121139626193
 20
101.1514680345372028
 30
0.0
 40
4.375
 41
100.0
 71
7
 72
2
  1
B
  7
STANDARD
 50
0.0000000000000013
 73
1
 44
1.0
  0
MTEXT
  5
4B
100
AcDbEntity
100
AcDbMText
  8
TEXT
 62
6
370
-1
  6
ByLayer
 10
174.4717126818709971
 20
106.723459693035494
 30
0.0
 40
3.9375
 41
100.0
 71
7
 72
2
  1
A
  7
STANDARD
 50
0.0000000000000013
 73
1
 44
1.0
  0
LINE
  5
4C
100
AcDbEntity
100
AcDbLine
  8
0
 62
256
370
-1
  6
ByLayer
 10
126.5
 20
175.0
 30
0.0
 11
126.5
 21
-0.0000000000000232
 31
0.0
  0
MTEXT
  5
4D
100
AcDbEntity
100
AcDbMText
  8
TEXT
 62
6
370
-1
  6
ByLayer
 10
163.3354222378650888
 20
11.5709867556014601
 30
0.0
 40
3.9375
 41
100.0
 71
7
 72
2
  1
A
  7
STANDARD
 50
0.0000000000000013
 73
1
 44
1.0
  0
MTEXT
  5
4E
100
AcDbEntity
100
AcDbMText
  8
TEXT
 62
6
370
-1
  6
ByLayer
 10
45.5477348493427883
 20
20.5718963577912284
 30
0.0
 40
3.9375
 41
100.0
 71
7
 72
2
  1
A
  7
STANDARD
 50
0.0000000000000013
 73
1
 44
1.0
  0
LINE
  5
4F
100
AcDbEntity
100
AcDbLine
  8
0
 62
256
370
-1
  6
ByLayer
 10
253.0
 20
-0.0000000000000749
 30
0.0
 11
253.0
 21
174.9999999999998863
 31
0.0
  0
LINE
  5
50
100
AcDbEntity
100
AcDbLine
  8
0
 62
256
370
-1
  6
ByLayer
 10
0.0000000000000284
 20
175.0
 30
0.0
 11
0.0
 21
0.0
 31
0.0
  0
MTEXT
  5
51
100
AcDbEntity
100
AcDbMText
  8
TEXT
 62
256
370
-1
  6
ByLayer
 10
4.8856348470806656
 20
154.2777777777777999
 30
0.0
 40
4.5
 41
100.0
 71
7
 72
2
  1
l'extrem\~B.
  7
STANDARD
 50
0.0000000000000013
 73
1
 44
1.0
  0
MTEXT
  5
52
100
AcDbEntity
100
AcDbMText
  8
TEXT
 62
256
370
-1
  6
ByLayer
 10
131.5
 20
154.4999999999998863
 30
0.0
 40
4.5
 41
100.0
 71
7
 72
2
  1
des\~del\~punt\~A.
  7
STANDARD
 50
0.0000000000000013
 73
1
 44
1.0
  0
MTEXT
  5
53
100
AcDbEntity
100
AcDbMText
  8
TEXT
 62
256
370
-1
  6
ByLayer
 10
131.5
 20
66.9999999999999432
 30
0.0
 40
4.5
 41
100.0
 71
7
 72
2
  1
a\~la\~recta\~A\~que\~passi\~per\~P1.
  7
STANDARD
 50
0.0000000000000013
 73
1
 44
1.0
  0
MTEXT
  5
54
100
AcDbEntity
100
AcDbMText
  8
TEXT
 62
256
370
-1
  6
ByLayer
 10
131.5
 20
59.4999999999999503
 30
0.0
 40
4.5
 41
100.0
 71
7
 72
2
  1

  7
STANDARD
 50
0.0000000000000013
 73
1
 44
1.0
  0
MTEXT
  5
55
100
AcDbEntity
100
AcDbMText
  8
TEXT
 62
3
370
-1
  6
ByLayer
 10
5.0000000000000284
 20
177.0
 30
0.0
 40
5.0
 41
100.0
 71
7
 72
2
  1
EXERCICIS\~SOBRE:\~"MODES\~DE\~REFERENCIA".\~I
  7
STANDARD
 50
0.0000000000000013
 73
1
 44
1.0
  0
LINE
  5
56
100
AcDbEntity
100
AcDbLine
  8
DIBUIX
 62
256
370
-1
  6
ByLayer
 10
14.2805
 20
110.5810000000000031
 30
0.0
 11
55.3990999999999971
 21
110.5810000000000031
 31
0.0
  0
LINE
  5
57
100
AcDbEntity
100
AcDbLine
  8
DIBUIX
 62
256
370
-1
  6
ByLayer
 10
169.7599999999999909
 20
114.0100000000000051
 30
0.0
 11
169.7599999999999909
 21
136.2980000000000018
 31
0.0
  0
LINE
  5
58
100
AcDbEntity
100
AcDbLine
  8
DIBUIX
 62
256
370
-1
  6
ByLayer
 10
151.7709999999999866
 20
114.0100000000000051
 30
0.0
 11
207.8810000000000002
 21
114.0100000000000051
 31
0.0
  0
LINE
  5
59
100
AcDbEntity
100
AcDbLine
  8
DIBUIX
 62
256
370
-1
  6
ByLayer
 10
169.7599999999999909
 20
114.0100000000000051
 30
0.0
 11
165.0490000000000066
 21
93.8649999999999949
 31
0.0
  0
LINE
  5
5A
100
AcDbEntity
100
AcDbLine
  8
DIBUIX
 62
256
370
-1
  6
ByLayer
 10
141.4910000000000139
 20
32.5730999999999966
 30
0.0
 11
207.0240000000000009
 21
1.28423
 31
0.0
  0
LINE
  5
5B
100
AcDbEntity
100
AcDbLine
  8
DIBUIX
 62
256
370
-1
  6
ByLayer
 10
51.2281670794621675
 20
40.5842557494105876
 30
0.0
 11
87.9513000000000034
 21
15.9989999999999988
 31
0.0
  0
MTEXT
  5
5C
100
AcDbEntity
100
AcDbMText
  8
TEXT
 62
256
370
-1
  6
ByLayer
 10
5.0
 20
66.9999999999999858
 30
0.0
 40
4.5
 41
100.0
 71
7
 72
2
  1

  7
STANDARD
 50
0.0000000000000013
 73
1
 44
1.0
  0
MTEXT
  5
5D
100
AcDbEntity
100
AcDbMText
  8
TEXT
 62
256
370
-1
  6
ByLayer
 10
5.4108352144469531
 20
67.5158013544017876
 30
0.0
 40
4.5
 41
100.0
 71
7
 72
2
  1
Dibuixar\~una\~recta\~perpendicular\Pa\~la\~recta\~A\~pel\~seu\~extrem.
  7
STANDARD
 50
0.0000000000000013
 73
1
 44
1.0
  0
MTEXT
  5
5E
100
AcDbEntity
100
AcDbMText
  8
TEXT
 62
6
370
-1
  6
ByLayer
 10
190.4861761436051495
 20
37.4753097435602314
 30
0.0
 40
3.9375
 41
100.0
 71
7
 72
2
  1
P1
  7
STANDARD
 50
0.0000000000000013
 73
1
 44
1.0
  0
POINT
  5
5F
100
AcDbEntity
100
AcDbPoint
  8
DIBUIX
 62
256
370
-1
  6
ByLayer
 10
183.0603392301804604
 20
39.4004784965787849
 30
0.0
  0
LINE
  5
60
100
AcDbEntity
100
AcDbLine
  8
TEXT
 62
3
370
-1
  6
ByLayer
 10
124.0439513721577072
 20
182.6685977287385754
 30
0.0
 11
123.2567653080057397
 21
183.2900604109638323
 31
0.0
  0
LINE
  5
61
100
AcDbEntity
100
AcDbLine
  8
TEXT
 62
256
370
-1
  6
ByLayer
 10
4.8856348470806656
 20
161.7777777777776862
 30
0.0
 11
6.3856348470806656
 21
161.7777777777776862
 31
0.0
  0
ARC
  5
62
100
AcDbEntity
  8
TEXT
 62
256
370
-1
  6
ByLayer
100
AcDbCircle
 10
6.3856348470806656
 20
162.7777777777776862
 30
0.0
 40
1.0
100
AcDbArc
 50
270.0
 51
0.0000000000000013
  0
LINE
  5
63
100
AcDbEntity
100
AcDbLine
  8
TEXT
 62
256
370
-1
  6
ByLayer
 10
7.3856348470806665
 20
162.7777777777776862
 30
0.0
 11
7.3856348470806665
 21
165.2777777777776862
 31
0.0
  0
ARC
  5
64
100
AcDbEntity
  8
TEXT
 62
256
370
-1
  6
ByLayer
100
AcDbCircle
 10
6.3856348470806656
 20
165.2777777777776862
 30
0.0
 40
1.0
100
AcDbArc
 50
0.0000000000000013
 51
90.0
  0
LINE
  5
65
100
AcDbEntity
100
AcDbLine
  8
TEXT
 62
256
370
-1
  6
ByLayer
 10
6.3856348470806656
 20
166.2777777777776862
 30
0.0
 11
4.8856348470806656
 21
166.2777777777776862
 31
0.0
  0
LINE
  5
66
100
AcDbEntity
100
AcDbLine
  8
TEXT
 62
256
370
-1
  6
ByLayer
 10
4.8856348470806656
 20
166.2777777777776862
 30
0.0
 11
4.8856348470806656
 21
161.7777777777776862
 31
0.0
  0
LINE
  5
67
100
AcDbEntity
100
AcDbLine
  8
TEXT
 62
256
370
-1
  6
ByLayer
 10
8.8856348470806665
 20
161.7777777777776862
 30
0.0
 11
8.8856348470806665
 21
164.7777777777776862
 31
0.0
  0
LINE
  5
68
100
AcDbEntity
100
AcDbLine
  8
TEXT
 62
256
370
-1
  6
ByLayer
 10
8.8856348470806665
 20
166.0277777777776862
 30
0.0
 11
8.8856348470806665
 21
166.2777777777776862
 31
0.0
  0
LINE
  5
69
100
AcDbEntity
100
AcDbLine
  8
TEXT
 62
256
370
-1
  6
ByLayer
 10
10.3856348470806665
 20
166.2777777777776862
 30
0.0
 11
10.3856348470806665
 21
161.7777777777776862
 31
0.0
  0
LINE
  5
6A
100
AcDbEntity
100
AcDbLine
  8
TEXT
 62
256
370
-1
  6
ByLayer
 10
10.3856348470806665
 20
161.7777777777776862
 30
0.0
 11
11.6356348470806665
 21
161.7777777777776862
 31
0.0
  0
ARC
  5
6B
100
AcDbEntity
  8
TEXT
 62
256
370
-1
  6
ByLayer
100
AcDbCircle
 10
11.6356348470806665
 20
162.5277777777776862
 30
0.0
 40
0.75
100
AcDbArc
 50
270.0
 51
0.0000000000000013
  0
LINE
  5
6C
100
AcDbEntity
100
AcDbLine
  8
TEXT
 62
256
370
-1
  6
ByLayer
 10
12.3856348470806665
 20
162.5277777777776862
 30
0.0
 11
12.3856348470806665
 21
164.0277777777776862
 31
0.0
  0
ARC
  5
6D
100
AcDbEntity
  8
TEXT
 62
256
370
-1
  6
ByLayer
100
AcDbCircle
 10
11.6356348470806665
 20
164.0277777777776862
 30
0.0
 40
0.75
100
AcDbArc
 50
0.0000000000000013
 51
90.0
  0
LINE
  5
6E
100
AcDbEntity
100
AcDbLine
  8
TEXT
 62
256
370
-1
  6
ByLayer
 10
11.6356348470806665
 20
164.7777777777776862
 30
0.0
 11
10.3856348470806665
 21
164.7777777777776862
 31
0.0
  0
LINE
  5
6F
100
AcDbEntity
100
AcDbLine
  8
TEXT
 62
256
370
-1
  6
ByLayer
 10
13.8856348470806665
 20
164.7777777777776862
 30
0.0
 11
13.8856348470806665
 21
162.5277777777776862
 31
0.0
  0
ARC
  5
70
100
AcDbEntity
  8
TEXT
 62
256
370
-1
  6
ByLayer
100
AcDbCircle
 10
14.6356348470806665
 20
162.5277777777776862
 30
0.0
 40
0.75
100
AcDbArc
 50
180.0
 51
270.0
  0
LINE
  5
71
100
AcDbEntity
100
AcDbLine
  8
TEXT
 62
256
370
-1
  6
ByLayer
 10
14.6356348470806665
 20
161.7777777777776862
 30
0.0
 11
15.8856348470806665
 21
161.7777777777776862
 31
0.0
  0
LINE
  5
72
100
AcDbEntity
100
AcDbLine
  8
TEXT
 62
256
370
-1
  6
ByLayer
 10
15.8856348470806665
 20
161.7777777777776862
 30
0.0
 11
15.8856348470806665
 21
164.7777777777776862
 31
0.0
  0
LINE
  5
73
100
AcDbEntity
100
AcDbLine
  8
TEXT
 62
256
370
-1
  6
ByLayer
 10
17.3856348470806665
 20
161.7777777777776862
 30
0.0
 11
17.3856348470806665
 21
164.7777777777776862
 31
0.0
  0
LINE
  5
74
100
AcDbEntity
100
AcDbLine
  8
TEXT
 62
256
370
-1
  6
ByLayer
 10
17.3856348470806665
 20
166.0277777777776862
 30
0.0
 11
17.3856348470806665
 21
166.2777777777776862
 31
0.0
  0
LINE
  5
75
100
AcDbEntity
100
AcDbLine
  8
TEXT
 62
256
370
-1
  6
ByLayer
 10
18.8856348470806665
 20
164.7777777777776862
 30
0.0
 11
20.8856348470806665
 21
161.7777777777776862
 31
0.0
  0
LINE
  5
76
100
AcDbEntity
100
AcDbLine
  8
TEXT
 62
256
370
-1
  6
ByLayer
 10
18.8856348470806665
 20
161.7777777777776862
 30
0.0
 11
20.8856348470806665
 21
164.7777777777776862
 31
0.0
  0
LINE
  5
77
100
AcDbEntity
100
AcDbLine
  8
TEXT
 62
256
370
-1
  6
ByLayer
 10
22.6356348470806665
 20
164.7777777777776862
 30
0.0
 11
23.6356348470806665
 21
164.7777777777776862
 31
0.0
  0
ARC
  5
78
100
AcDbEntity
  8
TEXT
 62
256
370
-1
  6
ByLayer
100
AcDbCircle
 10
23.6356348470806665
 20
164.0277777777776862
 30
0.0
 40
0.75
100
AcDbArc
 50
0.0000000000000013
 51
90.0
  0
LINE
  5
79
100
AcDbEntity
100
AcDbLine
  8
TEXT
 62
256
370
-1
  6
ByLayer
 10
24.3856348470806665
 20
164.0277777777776862
 30
0.0
 11
24.3856348470806665
 21
161.7777777777776862
 31
0.0
  0
LINE
  5
7A
100
AcDbEntity
100
AcDbLine
  8
TEXT
 62
256
370
-1
  6
ByLayer
 10
24.3856348470806665
 20
161.7777777777776862
 30
0.0
 11
23.1356348470806665
 21
161.7777777777776862
 31
0.0
  0
ARC
  5
7B
100
AcDbEntity
  8
TEXT
 62
256
370
-1
  6
ByLayer
100
AcDbCircle
 10
23.1356348470806665
 20
162.5277777777776862
 30
0.0
 40
0.75
100
AcDbArc
 50
90.0
 51
270.0
  0
LINE
  5
7C
100
AcDbEntity
100
AcDbLine
  8
TEXT
 62
256
370
-1
  6
ByLayer
 10
23.1356348470806665
 20
163.2777777777776862
 30
0.0
 11
24.3856348470806665
 21
163.2777777777776862
 31
0.0
  0
LINE
  5
7D
100
AcDbEntity
100
AcDbLine
  8
TEXT
 62
256
370
-1
  6
ByLayer
 10
25.8856348470806665
 20
161.7777777777776862
 30
0.0
 11
25.8856348470806665
 21
164.7777777777776862
 31
0.0
  0
LINE
  5
7E
100
AcDbEntity
100
AcDbLine
  8
TEXT
 62
256
370
-1
  6
ByLayer
 10
25.8856348470806665
 20
164.7777777777776862
 30
0.0
 11
26.8856348470806665
 21
164.7777777777776862
 31
0.0
  0
ARC
  5
7F
100
AcDbEntity
  8
TEXT
 62
256
370
-1
  6
ByLayer
100
AcDbCircle
 10
26.8856348470806665
 20
164.2777777777776862
 30
0.0
 40
0.5
100
AcDbArc
 50
0.0000000000000013
 51
90.0
  0
LINE
  5
80
100
AcDbEntity
100
AcDbLine
  8
TEXT
 62
256
370
-1
  6
ByLayer
 10
32.2606348470806665
 20
164.7777777777776862
 30
0.0
 11
32.2606348470806665
 21
162.5277777777776862
 31
0.0
  0
ARC
  5
81
100
AcDbEntity
  8
TEXT
 62
256
370
-1
  6
ByLayer
100
AcDbCircle
 10
33.0106348470806665
 20
162.5277777777776862
 30
0.0
 40
0.75
100
AcDbArc
 50
180.0
 51
270.0
  0
LINE
  5
82
100
AcDbEntity
100
AcDbLine
  8
TEXT
 62
256
370
-1
  6
ByLayer
 10
33.0106348470806665
 20
161.7777777777776862
 30
0.0
 11
34.2606348470806665
 21
161.7777777777776862
 31
0.0
  0
LINE
  5
83
100
AcDbEntity
100
AcDbLine
  8
TEXT
 62
256
370
-1
  6
ByLayer
 10
34.2606348470806665
 20
161.7777777777776862
 30
0.0
 11
34.2606348470806665
 21
164.7777777777776862
 31
0.0
  0
LINE
  5
84
100
AcDbEntity
100
AcDbLine
  8
TEXT
 62
256
370
-1
  6
ByLayer
 10
35.7606348470806665
 20
161.7777777777776862
 30
0.0
 11
35.7606348470806665
 21
164.7777777777776862
 31
0.0
  0
LINE
  5
85
100
AcDbEntity
100
AcDbLine
  8
TEXT
 62
256
370
-1
  6
ByLayer
 10
35.7606348470806665
 20
164.7777777777776862
 30
0.0
 11
37.0106348470806665
 21
164.7777777777776862
 31
0.0
  0
ARC
  5
86
100
AcDbEntity
  8
TEXT
 62
256
370
-1
  6
ByLayer
100
AcDbCircle
 10
37.0106348470806665
 20
164.0277777777776862
 30
0.0
 40
0.75
100
AcDbArc
 50
0.0000000000000013
 51
90.0
  0
LINE
  5
87
100
AcDbEntity
100
AcDbLine
  8
TEXT
 62
256
370
-1
  6
ByLayer
 10
37.7606348470806665
 20
164.0277777777776862
 30
0.0
 11
37.7606348470806665
 21
161.7777777777776862
 31
0.0
  0
LINE
  5
88
100
AcDbEntity
100
AcDbLine
  8
TEXT
 62
256
370
-1
  6
ByLayer
 10
39.5106348470806665
 20
164.7777777777776862
 30
0.0
 11
40.5106348470806665
 21
164.7777777777776862
 31
0.0
  0
ARC
  5
89
100
AcDbEntity
  8
TEXT
 62
256
370
-1
  6
ByLayer
100
AcDbCircle
 10
40.5106348470806665
 20
164.0277777777776862
 30
0.0
 40
0.75
100
AcDbArc
 50
0.0000000000000013
 51
90.0
  0
LINE
  5
8A
100
AcDbEntity
100
AcDbLine
  8
TEXT
 62
256
370
-1
  6
ByLayer
 10
41.2606348470806665
 20
164.0277777777776862
 30
0.0
 11
41.2606348470806665
 21
161.7777777777776862
 31
0.0
  0
LINE
  5
8B
100
AcDbEntity
100
AcDbLine
  8
TEXT
 62
256
370
-1
  6
ByLayer
 10
41.2606348470806665
 20
161.7777777777776862
 30
0.0
 11
40.0106348470806665
 21
161.7777777777776862
 31
0.0
  0
ARC
  5
8C
100
AcDbEntity
  8
TEXT
 62
256
370
-1
  6
ByLayer
100
AcDbCircle
 10
40.0106348470806665
 20
162.5277777777776862
 30
0.0
 40
0.75
100
AcDbArc
 50
90.0
 51
270.0
  0
LINE
  5
8D
100
AcDbEntity
100
AcDbLine
  8
TEXT
 62
256
370
-1
  6
ByLayer
 10
40.0106348470806665
 20
163.2777777777776862
 30
0.0
 11
41.2606348470806665
 21
163.2777777777776862
 31
0.0
  0
LINE
  5
8E
100
AcDbEntity
100
AcDbLine
  8
TEXT
 62
256
370
-1
  6
ByLayer
 10
46.1356348470806665
 20
166.2777777777776862
 30
0.0
 11
46.1356348470806665
 21
162.2777777777776862
 31
0.0
  0
ARC
  5
8F
100
AcDbEntity
  8
TEXT
 62
256
370
-1
  6
ByLayer
100
AcDbCircle
 10
46.6356348470806665
 20
162.2777777777776862
 30
0.0
 40
0.5
100
AcDbArc
 50
180.0
 51
270.0
  0
LINE
  5
90
100
AcDbEntity
100
AcDbLine
  8
TEXT
 62
256
370
-1
  6
ByLayer
 10
48.1356348470806665
 20
161.7777777777776862
 30
0.0
 11
48.1356348470806665
 21
164.7777777777776862
 31
0.0
  0
LINE
  5
91
100
AcDbEntity
100
AcDbLine
  8
TEXT
 62
256
370
-1
  6
ByLayer
 10
49.6356348470806665
 20
161.7777777777776862
 30
0.0
 11
49.6356348470806665
 21
164.7777777777776862
 31
0.0
  0
LINE
  5
92
100
AcDbEntity
100
AcDbLine
  8
TEXT
 62
256
370
-1
  6
ByLayer
 10
49.6356348470806665
 20
164.7777777777776862
 30
0.0
 11
50.8856348470806665
 21
164.7777777777776862
 31
0.0
  0
ARC
  5
93
100
AcDbEntity
  8
TEXT
 62
256
370
-1
  6
ByLayer
100
AcDbCircle
 10
50.8856348470806665
 20
164.0277777777776862
 30
0.0
 40
0.75
100
AcDbArc
 50
0.0000000000000013
 51
90.0
  0
LINE
  5
94
100
AcDbEntity
100
AcDbLine
  8
TEXT
 62
256
370
-1
  6
ByLayer
 10
51.6356348470806665
 20
164.0277777777776862
 30
0.0
 11
51.6356348470806665
 21
161.7777777777776862
 31
0.0
  0
LINE
  5
95
100
AcDbEntity
100
AcDbLine
  8
TEXT
 62
256
370
-1
  6
ByLayer
 10
53.1356348470806665
 20
161.7777777777776862
 30
0.0
 11
53.1356348470806665
 21
164.7777777777776862
 31
0.0
  0
LINE
  5
96
100
AcDbEntity
100
AcDbLine
  8
TEXT
 62
256
370
-1
  6
ByLayer
 10
53.1356348470806665
 20
166.0277777777776862
 30
0.0
 11
53.1356348470806665
 21
166.2777777777776862
 31
0.0
  0
LINE
  5
97
100
AcDbEntity
100
AcDbLine
  8
TEXT
 62
256
370
-1
  6
ByLayer
 10
54.8856348470806665
 20
164.7777777777776862
 30
0.0
 11
55.8856348470806665
 21
164.7777777777776862
 31
0.0
  0
ARC
  5
98
100
AcDbEntity
  8
TEXT
 62
256
370
-1
  6
ByLayer
100
AcDbCircle
 10
55.8856348470806665
 20
164.0277777777776862
 30
0.0
 40
0.75
100
AcDbArc
 50
0.0000000000000013
 51
90.0
  0
LINE
  5
99
100
AcDbEntity
100
AcDbLine
  8
TEXT
 62
256
370
-1
  6
ByLayer
 10
56.6356348470806665
 20
164.0277777777776862
 30
0.0
 11
56.6356348470806665
 21
161.7777777777776862
 31
0.0
  0
LINE
  5
9A
100
AcDbEntity
100
AcDbLine
  8
TEXT
 62
256
370
-1
  6
ByLayer
 10
56.6356348470806665
 20
161.7777777777776862
 30
0.0
 11
55.3856348470806665
 21
161.7777777777776862
 31
0.0
  0
ARC
  5
9B
100
AcDbEntity
  8
TEXT
 62
256
370
-1
  6
ByLayer
100
AcDbCircle
 10
55.3856348470806665
 20
162.5277777777776862
 30
0.0
 40
0.75
100
AcDbArc
 50
90.0
 51
270.0
  0
LINE
  5
9C
100
AcDbEntity
100
AcDbLine
  8
TEXT
 62
256
370
-1
  6
ByLayer
 10
55.3856348470806665
 20
163.2777777777776862
 30
0.0
 11
56.6356348470806665
 21
163.2777777777776862
 31
0.0
  0
LINE
  5
9D
100
AcDbEntity
100
AcDbLine
  8
TEXT
 62
256
370
-1
  6
ByLayer
 10
63.5106348470806665
 20
161.7777777777776862
 30
0.0
 11
62.2606348470806665
 21
161.7777777777776862
 31
0.0
  0
ARC
  5
9E
100
AcDbEntity
  8
TEXT
 62
256
370
-1
  6
ByLayer
100
AcDbCircle
 10
62.2606348470806665
 20
162.5277777777776862
 30
0.0
 40
0.75
100
AcDbArc
 50
180.0
 51
270.0
  0
LINE
  5
9F
100
AcDbEntity
100
AcDbLine
  8
TEXT
 62
256
370
-1
  6
ByLayer
 10
61.5106348470806665
 20
162.5277777777776862
 30
0.0
 11
61.5106348470806665
 21
164.0277777777776862
 31
0.0
  0
ARC
  5
A0
100
AcDbEntity
  8
TEXT
 62
256
370
-1
  6
ByLayer
100
AcDbCircle
 10
62.2606348470806665
 20
164.0277777777776862
 30
0.0
 40
0.75
100
AcDbArc
 50
90.0
 51
180.0
  0
LINE
  5
A1
100
AcDbEntity
100
AcDbLine
  8
TEXT
 62
256
370
-1
  6
ByLayer
 10
62.2606348470806665
 20
164.7777777777776862
 30
0.0
 11
63.5106348470806665
 21
164.7777777777776862
 31
0.0
  0
LINE
  5
A2
100
AcDbEntity
100
AcDbLine
  8
TEXT
 62
256
370
-1
  6
ByLayer
 10
63.5106348470806665
 20
164.7777777777776862
 30
0.0
 11
63.5106348470806665
 21
160.2777777777776862
 31
0.0
  0
LINE
  5
A3
100
AcDbEntity
100
AcDbLine
  8
TEXT
 62
256
370
-1
  6
ByLayer
 10
65.0106348470806665
 20
164.7777777777776862
 30
0.0
 11
65.0106348470806665
 21
162.5277777777776862
 31
0.0
  0
ARC
  5
A4
100
AcDbEntity
  8
TEXT
 62
256
370
-1
  6
ByLayer
100
AcDbCircle
 10
65.7606348470806665
 20
162.5277777777776862
 30
0.0
 40
0.75
100
AcDbArc
 50
180.0
 51
270.0
  0
LINE
  5
A5
100
AcDbEntity
100
AcDbLine
  8
TEXT
 62
256
370
-1
  6
ByLayer
 10
65.7606348470806665
 20
161.7777777777776862
 30
0.0
 11
67.0106348470806665
 21
161.7777777777776862
 31
0.0
  0
LINE
  5
A6
100
AcDbEntity
100
AcDbLine
  8
TEXT
 62
256
370
-1
  6
ByLayer
 10
67.0106348470806665
 20
161.7777777777776862
 30
0.0
 11
67.0106348470806665
 21
164.7777777777776862
 31
0.0
  0
LINE
  5
A7
100
AcDbEntity
100
AcDbLine
  8
TEXT
 62
256
370
-1
  6
ByLayer
 10
68.7606348470806665
 20
164.7777777777776862
 30
0.0
 11
69.7606348470806665
 21
164.7777777777776862
 31
0.0
  0
ARC
  5
A8
100
AcDbEntity
  8
TEXT
 62
256
370
-1
  6
ByLayer
100
AcDbCircle
 10
69.7606348470806665
 20
164.0277777777776862
 30
0.0
 40
0.75
100
AcDbArc
 50
0.0000000000000013
 51
90.0
  0
LINE
  5
A9
100
AcDbEntity
100
AcDbLine
  8
TEXT
 62
256
370
-1
  6
ByLayer
 10
70.5106348470806665
 20
164.0277777777776862
 30
0.0
 11
70.5106348470806665
 21
161.7777777777776862
 31
0.0
  0
LINE
  5
AA
100
AcDbEntity
100
AcDbLine
  8
TEXT
 62
256
370
-1
  6
ByLayer
 10
70.5106348470806665
 20
161.7777777777776862
 30
0.0
 11
69.2606348470806665
 21
161.7777777777776862
 31
0.0
  0
ARC
  5
AB
100
AcDbEntity
  8
TEXT
 62
256
370
-1
  6
ByLayer
100
AcDbCircle
 10
69.2606348470806665
 20
162.5277777777776862
 30
0.0
 40
0.75
100
AcDbArc
 50
90.0
 51
270.0
  0
LINE
  5
AC
100
AcDbEntity
100
AcDbLine
  8
TEXT
 62
256
370
-1
  6
ByLayer
 10
69.2606348470806665
 20
163.2777777777776862
 30
0.0
 11
70.5106348470806665
 21
163.2777777777776862
 31
0.0
  0
LINE
  5
AD
100
AcDbEntity
100
AcDbLine
  8
TEXT
 62
256
370
-1
  6
ByLayer
 10
72.0106348470806665
 20
166.2777777777776862
 30
0.0
 11
72.0106348470806665
 21
162.2777777777776862
 31
0.0
  0
ARC
  5
AE
100
AcDbEntity
  8
TEXT
 62
256
370
-1
  6
ByLayer
100
AcDbCircle
 10
72.5106348470806665
 20
162.2777777777776862
 30
0.0
 40
0.5
100
AcDbArc
 50
180.0
 51
270.0
  0
ARC
  5
AF
100
AcDbEntity
  8
TEXT
 62
256
370
-1
  6
ByLayer
100
AcDbCircle
 10
75.0927273470806682
 20
162.6882177777776803
 30
0.0
 40
2.0286499999999998
100
AcDbArc
 50
63.097369999999998
 51
108.2755200000000002
  0
ARC
  5
B0
100
AcDbEntity
  8
TEXT
 62
256
370
-1
  6
ByLayer
100
AcDbCircle
 10
74.6447288470806711
 20
164.0448077777776916
 30
0.0
 40
0.6
100
AcDbArc
 50
108.2745670000000047
 51
247.7905429999999853
  0
LINE
  5
B1
100
AcDbEntity
100
AcDbLine
  8
TEXT
 62
256
370
-1
  6
ByLayer
 10
74.4179223470806619
 20
163.4893227777776872
 30
0.0
 11
75.6033473470806712
 21
163.0053227777776783
 31
0.0
  0
ARC
  5
B2
100
AcDbEntity
  8
TEXT
 62
256
370
-1
  6
ByLayer
100
AcDbCircle
 10
75.3765408470806619
 20
162.4498377777777023
 30
0.0
 40
0.5999949999999999
100
AcDbArc
 50
288.2749329999999759
 51
67.7911909999999978
  0
ARC
  5
B3
100
AcDbEntity
  8
TEXT
 62
256
370
-1
  6
ByLayer
100
AcDbCircle
 10
74.9285423470806649
 20
163.8064377777776883
 30
0.0
 40
2.0286599999999999
100
AcDbArc
 50
243.0976559999999722
 51
288.2755129999999895
  0
LINE
  5
B4
100
AcDbEntity
100
AcDbLine
  8
TEXT
 62
256
370
-1
  6
ByLayer
 10
77.5106420628237629
 20
163.2777777777776862
 30
0.0
 11
79.5106420628237629
 21
163.2777777777776862
 31
0.0
  0
LINE
  5
B5
100
AcDbEntity
100
AcDbLine
  8
TEXT
 62
256
370
-1
  6
ByLayer
 10
79.5106420628237629
 20
163.2777777777776862
 30
0.0
 11
79.5106420628237629
 21
163.7777777777776862
 31
0.0
  0
ARC
  5
B6
100
AcDbEntity
  8
TEXT
 62
256
370
-1
  6
ByLayer
100
AcDbCircle
 10
78.5106420628237629
 20
163.7777777777776862
 30
0.0
 40
1.0
100
AcDbArc
 50
0.0000000000000013
 51
180.0
  0
LINE
  5
B7
100
AcDbEntity
100
AcDbLine
  8
TEXT
 62
256
370
-1
  6
ByLayer
 10
77.5106420628237629
 20
163.7777777777776862
 30
0.0
 11
77.5106420628237629
 21
162.5277777777776862
 31
0.0
  0
ARC
  5
B8
100
AcDbEntity
  8
TEXT
 62
256
370
-1
  6
ByLayer
100
AcDbCircle
 10
78.2606420628237629
 20
162.5277777777776862
 30
0.0
 40
0.75
100
AcDbArc
 50
180.0
 51
270.0
  0
LINE
  5
B9
100
AcDbEntity
100
AcDbLine
  8
TEXT
 62
256
370
-1
  6
ByLayer
 10
78.2606420628237629
 20
161.7777777777776862
 30
0.0
 11
79.5106420628237629
 21
161.7777777777776862
 31
0.0
  0
LINE
  5
BA
100
AcDbEntity
100
AcDbLine
  8
TEXT
 62
256
370
-1
  6
ByLayer
 10
81.0106420628237629
 20
164.7777777777776862
 30
0.0
 11
82.0106420628237629
 21
161.7777777777776862
 31
0.0
  0
LINE
  5
BB
100
AcDbEntity
100
AcDbLine
  8
TEXT
 62
256
370
-1
  6
ByLayer
 10
82.0106420628237629
 20
161.7777777777776862
 30
0.0
 11
83.0106420628237629
 21
164.7777777777776862
 31
0.0
  0
LINE
  5
BC
100
AcDbEntity
100
AcDbLine
  8
TEXT
 62
256
370
-1
  6
ByLayer
 10
84.5106420628237629
 20
163.7777777777776862
 30
0.0
 11
84.5106420628237629
 21
162.7777777777776862
 31
0.0
  0
ARC
  5
BD
100
AcDbEntity
  8
TEXT
 62
256
370
-1
  6
ByLayer
100
AcDbCircle
 10
85.5106420628237629
 20
162.7777777777776862
 30
0.0
 40
1.0
100
AcDbArc
 50
180.0
 51
0.0000000000000013
  0
LINE
  5
BE
100
AcDbEntity
100
AcDbLine
  8
TEXT
 62
256
370
-1
  6
ByLayer
 10
86.5106420628237629
 20
162.7777777777776862
 30
0.0
 11
86.5106420628237629
 21
163.7777777777776862
 31
0.0
  0
ARC
  5
BF
100
AcDbEntity
  8
TEXT
 62
256
370
-1
  6
ByLayer
100
AcDbCircle
 10
85.5106420628237629
 20
163.7777777777776862
 30
0.0
 40
1.0
100
AcDbArc
 50
0.0000000000000013
 51
180.0
  0
LINE
  5
C0
100
AcDbEntity
100
AcDbLine
  8
TEXT
 62
256
370
-1
  6
ByLayer
 10
88.0106420628237629
 20
166.2777777777776862
 30
0.0
 11
88.0106420628237629
 21
162.2777777777776862
 31
0.0
  0
ARC
  5
C1
100
AcDbEntity
  8
TEXT
 62
256
370
-1
  6
ByLayer
100
AcDbCircle
 10
88.5106420628237629
 20
162.2777777777776862
 30
0.0
 40
0.5
100
AcDbArc
 50
180.0
 51
270.0
  0
LINE
  5
C2
100
AcDbEntity
100
AcDbLine
  8
TEXT
 62
256
370
-1
  6
ByLayer
 10
93.6356420628237629
 20
164.7777777777776862
 30
0.0
 11
94.6356420628237629
 21
164.7777777777776862
 31
0.0
  0
ARC
  5
C3
100
AcDbEntity
  8
TEXT
 62
256
370
-1
  6
ByLayer
100
AcDbCircle
 10
94.6356420628237629
 20
164.0277777777776862
 30
0.0
 40
0.75
100
AcDbArc
 50
0.0000000000000013
 51
90.0
  0
LINE
  5
C4
100
AcDbEntity
100
AcDbLine
  8
TEXT
 62
256
370
-1
  6
ByLayer
 10
95.3856420628237629
 20
164.0277777777776862
 30
0.0
 11
95.3856420628237629
 21
161.7777777777776862
 31
0.0
  0
LINE
  5
C5
100
AcDbEntity
100
AcDbLine
  8
TEXT
 62
256
370
-1
  6
ByLayer
 10
95.3856420628237629
 20
161.7777777777776862
 30
0.0
 11
94.1356420628237629
 21
161.7777777777776862
 31
0.0
  0
ARC
  5
C6
100
AcDbEntity
  8
TEXT
 62
256
370
-1
  6
ByLayer
100
AcDbCircle
 10
94.1356420628237629
 20
162.5277777777776862
 30
0.0
 40
0.75
100
AcDbArc
 50
90.0
 51
270.0
  0
LINE
  5
C7
100
AcDbEntity
100
AcDbLine
  8
TEXT
 62
256
370
-1
  6
ByLayer
 10
94.1356420628237629
 20
163.2777777777776862
 30
0.0
 11
95.3856420628237629
 21
163.2777777777776862
 31
0.0
  0
LINE
  5
C8
100
AcDbEntity
100
AcDbLine
  8
TEXT
 62
256
370
-1
  6
ByLayer
 10
48.1356348470806665
 20
166.0277777777776862
 30
0.0
 11
48.5882499020830565
 21
166.4318956022421787
 31
0.0
  0
LINE
  5
C9
100
AcDbEntity
100
AcDbLine
  8
TEXT
 62
256
370
-1
  6
ByLayer
 10
131.5000000000001137
 20
161.9999999999998863
 30
0.0
 11
133.0000000000001137
 21
161.9999999999998863
 31
0.0
  0
ARC
  5
CA
100
AcDbEntity
  8
TEXT
 62
256
370
-1
  6
ByLayer
100
AcDbCircle
 10
133.0000000000001137
 20
162.9999999999998863
 30
0.0
 40
1.0
100
AcDbArc
 50
270.0
 51
0.0000000000000013
  0
LINE
  5
CB
100
AcDbEntity
100
AcDbLine
  8
TEXT
 62
256
370
-1
  6
ByLayer
 10
134.0000000000001137
 20
162.9999999999998863
 30
0.0
 11
134.0000000000001137
 21
165.4999999999998863
 31
0.0
  0
ARC
  5
CC
100
AcDbEntity
  8
TEXT
 62
256
370
-1
  6
ByLayer
100
AcDbCircle
 10
133.0000000000001137
 20
165.4999999999998863
 30
0.0
 40
1.0
100
AcDbArc
 50
0.0000000000000013
 51
90.0
  0
LINE
  5
CD
100
AcDbEntity
100
AcDbLine
  8
TEXT
 62
256
370
-1
  6
ByLayer
 10
133.0000000000001137
 20
166.4999999999998863
 30
0.0
 11
131.5000000000001137
 21
166.4999999999998863
 31
0.0
  0
LINE
  5
CE
100
AcDbEntity
100
AcDbLine
  8
TEXT
 62
256
370
-1
  6
ByLayer
 10
131.5000000000001137
 20
166.4999999999998863
 30
0.0
 11
131.5000000000001137
 21
161.9999999999998863
 31
0.0
  0
LINE
  5
CF
100
AcDbEntity
100
AcDbLine
  8
TEXT
 62
256
370
-1
  6
ByLayer
 10
135.5000000000001137
 20
161.9999999999998863
 30
0.0
 11
135.5000000000001137
 21
164.9999999999998863
 31
0.0
  0
LINE
  5
D0
100
AcDbEntity
100
AcDbLine
  8
TEXT
 62
256
370
-1
  6
ByLayer
 10
135.5000000000001137
 20
166.2499999999998863
 30
0.0
 11
135.5000000000001137
 21
166.4999999999998863
 31
0.0
  0
LINE
  5
D1
100
AcDbEntity
100
AcDbLine
  8
TEXT
 62
256
370
-1
  6
ByLayer
 10
137.0000000000001137
 20
166.4999999999998863
 30
0.0
 11
137.0000000000001137
 21
161.9999999999998863
 31
0.0
  0
LINE
  5
D2
100
AcDbEntity
100
AcDbLine
  8
TEXT
 62
256
370
-1
  6
ByLayer
 10
137.0000000000001137
 20
161.9999999999998863
 30
0.0
 11
138.2500000000001137
 21
161.9999999999998863
 31
0.0
  0
ARC
  5
D3
100
AcDbEntity
  8
TEXT
 62
256
370
-1
  6
ByLayer
100
AcDbCircle
 10
138.2500000000001137
 20
162.7499999999998863
 30
0.0
 40
0.75
100
AcDbArc
 50
270.0
 51
0.0000000000000013
  0
LINE
  5
D4
100
AcDbEntity
100
AcDbLine
  8
TEXT
 62
256
370
-1
  6
ByLayer
 10
139.0000000000001137
 20
162.7499999999998863
 30
0.0
 11
139.0000000000001137
 21
164.2499999999998863
 31
0.0
  0
ARC
  5
D5
100
AcDbEntity
  8
TEXT
 62
256
370
-1
  6
ByLayer
100
AcDbCircle
 10
138.2500000000001137
 20
164.2499999999998863
 30
0.0
 40
0.75
100
AcDbArc
 50
0.0000000000000013
 51
90.0
  0
LINE
  5
D6
100
AcDbEntity
100
AcDbLine
  8
TEXT
 62
256
370
-1
  6
ByLayer
 10
138.2500000000001137
 20
164.9999999999998863
 30
0.0
 11
137.0000000000001137
 21
164.9999999999998863
 31
0.0
  0
LINE
  5
D7
100
AcDbEntity
100
AcDbLine
  8
TEXT
 62
256
370
-1
  6
ByLayer
 10
140.5000000000001137
 20
164.9999999999998863
 30
0.0
 11
140.5000000000001137
 21
162.7499999999998863
 31
0.0
  0
ARC
  5
D8
100
AcDbEntity
  8
TEXT
 62
256
370
-1
  6
ByLayer
100
AcDbCircle
 10
141.2500000000001137
 20
162.7499999999998863
 30
0.0
 40
0.75
100
AcDbArc
 50
180.0
 51
270.0
  0
LINE
  5
D9
100
AcDbEntity
100
AcDbLine
  8
TEXT
 62
256
370
-1
  6
ByLayer
 10
141.2500000000001137
 20
161.9999999999998863
 30
0.0
 11
142.5000000000001137
 21
161.9999999999998863
 31
0.0
  0
LINE
  5
DA
100
AcDbEntity
100
AcDbLine
  8
TEXT
 62
256
370
-1
  6
ByLayer
 10
142.5000000000001137
 20
161.9999999999998863
 30
0.0
 11
142.5000000000001137
 21
164.9999999999998863
 31
0.0
  0
LINE
  5
DB
100
AcDbEntity
100
AcDbLine
  8
TEXT
 62
256
370
-1
  6
ByLayer
 10
144.0000000000001137
 20
161.9999999999998863
 30
0.0
 11
144.0000000000001137
 21
164.9999999999998863
 31
0.0
  0
LINE
  5
DC
100
AcDbEntity
100
AcDbLine
  8
TEXT
 62
256
370
-1
  6
ByLayer
 10
144.0000000000001137
 20
166.2499999999998863
 30
0.0
 11
144.0000000000001137
 21
166.4999999999998863
 31
0.0
  0
LINE
  5
DD
100
AcDbEntity
100
AcDbLine
  8
TEXT
 62
256
370
-1
  6
ByLayer
 10
145.5000000000001137
 20
164.9999999999998863
 30
0.0
 11
147.5000000000001137
 21
161.9999999999998863
 31
0.0
  0
LINE
  5
DE
100
AcDbEntity
100
AcDbLine
  8
TEXT
 62
256
370
-1
  6
ByLayer
 10
145.5000000000001137
 20
161.9999999999998863
 30
0.0
 11
147.5000000000001137
 21
164.9999999999998863
 31
0.0
  0
LINE
  5
DF
100
AcDbEntity
100
AcDbLine
  8
TEXT
 62
256
370
-1
  6
ByLayer
 10
149.2500000000001137
 20
164.9999999999998863
 30
0.0
 11
150.2500000000001137
 21
164.9999999999998863
 31
0.0
  0
ARC
  5
E0
100
AcDbEntity
  8
TEXT
 62
256
370
-1
  6
ByLayer
100
AcDbCircle
 10
150.2500000000001137
 20
164.2499999999998863
 30
0.0
 40
0.75
100
AcDbArc
 50
0.0000000000000013
 51
90.0
  0
LINE
  5
E1
100
AcDbEntity
100
AcDbLine
  8
TEXT
 62
256
370
-1
  6
ByLayer
 10
151.0000000000001137
 20
164.2499999999998863
 30
0.0
 11
151.0000000000001137
 21
161.9999999999998863
 31
0.0
  0
LINE
  5
E2
100
AcDbEntity
100
AcDbLine
  8
TEXT
 62
256
370
-1
  6
ByLayer
 10
151.0000000000001137
 20
161.9999999999998863
 30
0.0
 11
149.7500000000001137
 21
161.9999999999998863
 31
0.0
  0
ARC
  5
E3
100
AcDbEntity
  8
TEXT
 62
256
370
-1
  6
ByLayer
100
AcDbCircle
 10
149.7500000000001137
 20
162.7499999999998863
 30
0.0
 40
0.75
100
AcDbArc
 50
90.0
 51
270.0
  0
LINE
  5
E4
100
AcDbEntity
100
AcDbLine
  8
TEXT
 62
256
370
-1
  6
ByLayer
 10
149.7500000000001137
 20
163.4999999999998863
 30
0.0
 11
151.0000000000001137
 21
163.4999999999998863
 31
0.0
  0
LINE
  5
E5
100
AcDbEntity
100
AcDbLine
  8
TEXT
 62
256
370
-1
  6
ByLayer
 10
152.5000000000001137
 20
161.9999999999998863
 30
0.0
 11
152.5000000000001137
 21
164.9999999999998863
 31
0.0
  0
LINE
  5
E6
100
AcDbEntity
100
AcDbLine
  8
TEXT
 62
256
370
-1
  6
ByLayer
 10
152.5000000000001137
 20
164.9999999999998863
 30
0.0
 11
153.5000000000001137
 21
164.9999999999998863
 31
0.0
  0
ARC
  5
E7
100
AcDbEntity
  8
TEXT
 62
256
370
-1
  6
ByLayer
100
AcDbCircle
 10
153.5000000000001137
 20
164.4999999999998863
 30
0.0
 40
0.5
100
AcDbArc
 50
0.0000000000000013
 51
90.0
  0
LINE
  5
E8
100
AcDbEntity
100
AcDbLine
  8
TEXT
 62
256
370
-1
  6
ByLayer
 10
158.8750000000001137
 20
164.9999999999998863
 30
0.0
 11
158.8750000000001137
 21
162.7499999999998863
 31
0.0
  0
ARC
  5
E9
100
AcDbEntity
  8
TEXT
 62
256
370
-1
  6
ByLayer
100
AcDbCircle
 10
159.6250000000001137
 20
162.7499999999998863
 30
0.0
 40
0.75
100
AcDbArc
 50
180.0
 51
270.0
  0
LINE
  5
EA
100
AcDbEntity
100
AcDbLine
  8
TEXT
 62
256
370
-1
  6
ByLayer
 10
159.6250000000001137
 20
161.9999999999998863
 30
0.0
 11
160.8750000000001137
 21
161.9999999999998863
 31
0.0
  0
LINE
  5
EB
100
AcDbEntity
100
AcDbLine
  8
TEXT
 62
256
370
-1
  6
ByLayer
 10
160.8750000000001137
 20
161.9999999999998863
 30
0.0
 11
160.8750000000001137
 21
164.9999999999998863
 31
0.0
  0
LINE
  5
EC
100
AcDbEntity
100
AcDbLine
  8
TEXT
 62
256
370
-1
  6
ByLayer
 10
162.3750000000001137
 20
161.9999999999998863
 30
0.0
 11
162.3750000000001137
 21
164.9999999999998863
 31
0.0
  0
LINE
  5
ED
100
AcDbEntity
100
AcDbLine
  8
TEXT
 62
256
370
-1
  6
ByLayer
 10
162.3750000000001137
 20
164.9999999999998863
 30
0.0
 11
163.6250000000001137
 21
164.9999999999998863
 31
0.0
  0
ARC
  5
EE
100
AcDbEntity
  8
TEXT
 62
256
370
-1
  6
ByLayer
100
AcDbCircle
 10
163.6250000000001137
 20
164.2499999999998863
 30
0.0
 40
0.75
100
AcDbArc
 50
0.0000000000000013
 51
90.0
  0
LINE
  5
EF
100
AcDbEntity
100
AcDbLine
  8
TEXT
 62
256
370
-1
  6
ByLayer
 10
164.3750000000001137
 20
164.2499999999998863
 30
0.0
 11
164.3750000000001137
 21
161.9999999999998863
 31
0.0
  0
LINE
  5
F0
100
AcDbEntity
100
AcDbLine
  8
TEXT
 62
256
370
-1
  6
ByLayer
 10
166.1250000000001137
 20
164.9999999999998863
 30
0.0
 11
167.1250000000001137
 21
164.9999999999998863
 31
0.0
  0
ARC
  5
F1
100
AcDbEntity
  8
TEXT
 62
256
370
-1
  6
ByLayer
100
AcDbCircle
 10
167.1250000000001137
 20
164.2499999999998863
 30
0.0
 40
0.75
100
AcDbArc
 50
0.0000000000000013
 51
90.0
  0
LINE
  5
F2
100
AcDbEntity
100
AcDbLine
  8
TEXT
 62
256
370
-1
  6
ByLayer
 10
167.8750000000001137
 20
164.2499999999998863
 30
0.0
 11
167.8750000000001137
 21
161.9999999999998863
 31
0.0
  0
LINE
  5
F3
100
AcDbEntity
100
AcDbLine
  8
TEXT
 62
256
370
-1
  6
ByLayer
 10
167.8750000000001137
 20
161.9999999999998863
 30
0.0
 11
166.6250000000001137
 21
161.9999999999998863
 31
0.0
  0
ARC
  5
F4
100
AcDbEntity
  8
TEXT
 62
256
370
-1
  6
ByLayer
100
AcDbCircle
 10
166.6250000000001137
 20
162.7499999999998863
 30
0.0
 40
0.75
100
AcDbArc
 50
90.0
 51
270.0
  0
LINE
  5
F5
100
AcDbEntity
100
AcDbLine
  8
TEXT
 62
256
370
-1
  6
ByLayer
 10
166.6250000000001137
 20
163.4999999999998863
 30
0.0
 11
167.8750000000001137
 21
163.4999999999998863
 31
0.0
  0
LINE
  5
F6
100
AcDbEntity
100
AcDbLine
  8
TEXT
 62
256
370
-1
  6
ByLayer
 10
172.7500000000001137
 20
166.4999999999998863
 30
0.0
 11
172.7500000000001137
 21
162.4999999999998863
 31
0.0
  0
ARC
  5
F7
100
AcDbEntity
  8
TEXT
 62
256
370
-1
  6
ByLayer
100
AcDbCircle
 10
173.2500000000001137
 20
162.4999999999998863
 30
0.0
 40
0.5
100
AcDbArc
 50
180.0
 51
270.0
  0
LINE
  5
F8
100
AcDbEntity
100
AcDbLine
  8
TEXT
 62
256
370
-1
  6
ByLayer
 10
174.7500000000001137
 20
161.9999999999998863
 30
0.0
 11
174.7500000000001137
 21
164.9999999999998863
 31
0.0
  0
LINE
  5
F9
100
AcDbEntity
100
AcDbLine
  8
TEXT
 62
256
370
-1
  6
ByLayer
 10
176.2500000000001137
 20
161.9999999999998863
 30
0.0
 11
176.2500000000001137
 21
164.9999999999998863
 31
0.0
  0
LINE
  5
FA
100
AcDbEntity
100
AcDbLine
  8
TEXT
 62
256
370
-1
  6
ByLayer
 10
176.2500000000001137
 20
164.9999999999998863
 30
0.0
 11
177.5000000000001137
 21
164.9999999999998863
 31
0.0
  0
ARC
  5
FB
100
AcDbEntity
  8
TEXT
 62
256
370
-1
  6
ByLayer
100
AcDbCircle
 10
177.5000000000001137
 20
164.2499999999998863
 30
0.0
 40
0.75
100
AcDbArc
 50
0.0000000000000013
 51
90.0
  0
LINE
  5
FC
100
AcDbEntity
100
AcDbLine
  8
TEXT
 62
256
370
-1
  6
ByLayer
 10
178.2500000000001137
 20
164.2499999999998863
 30
0.0
 11
178.2500000000001137
 21
161.9999999999998863
 31
0.0
  0
LINE
  5
FD
100
AcDbEntity
100
AcDbLine
  8
TEXT
 62
256
370
-1
  6
ByLayer
 10
179.7500000000001137
 20
161.9999999999998863
 30
0.0
 11
179.7500000000001137
 21
164.9999999999998863
 31
0.0
  0
LINE
  5
FE
100
AcDbEntity
100
AcDbLine
  8
TEXT
 62
256
370
-1
  6
ByLayer
 10
179.7500000000001137
 20
166.2499999999998863
 30
0.0
 11
179.7500000000001137
 21
166.4999999999998863
 31
0.0
  0
LINE
  5
FF
100
AcDbEntity
100
AcDbLine
  8
TEXT
 62
256
370
-1
  6
ByLayer
 10
181.5000000000001137
 20
164.9999999999998863
 30
0.0
 11
182.5000000000001137
 21
164.9999999999998863
 31
0.0
  0
ARC
  5
100
100
AcDbEntity
  8
TEXT
 62
256
370
-1
  6
ByLayer
100
AcDbCircle
 10
182.5000000000001137
 20
164.2499999999998863
 30
0.0
 40
0.75
100
AcDbArc
 50
0.0000000000000013
 51
90.0
  0
LINE
  5
101
100
AcDbEntity
100
AcDbLine
  8
TEXT
 62
256
370
-1
  6
ByLayer
 10
183.2500000000001137
 20
164.2499999999998863
 30
0.0
 11
183.2500000000001137
 21
161.9999999999998863
 31
0.0
  0
LINE
  5
102
100
AcDbEntity
100
AcDbLine
  8
TEXT
 62
256
370
-1
  6
ByLayer
 10
183.2500000000001137
 20
161.9999999999998863
 30
0.0
 11
182.0000000000001137
 21
161.9999999999998863
 31
0.0
  0
ARC
  5
103
100
AcDbEntity
  8
TEXT
 62
256
370
-1
  6
ByLayer
100
AcDbCircle
 10
182.0000000000001137
 20
162.7499999999998863
 30
0.0
 40
0.75
100
AcDbArc
 50
90.0
 51
270.0
  0
LINE
  5
104
100
AcDbEntity
100
AcDbLine
  8
TEXT
 62
256
370
-1
  6
ByLayer
 10
182.0000000000001137
 20
163.4999999999998863
 30
0.0
 11
183.2500000000001137
 21
163.4999999999998863
 31
0.0
  0
LINE
  5
105
100
AcDbEntity
100
AcDbLine
  8
TEXT
 62
256
370
-1
  6
ByLayer
 10
190.1250000000001137
 20
161.9999999999998863
 30
0.0
 11
188.8750000000001137
 21
161.9999999999998863
 31
0.0
  0
ARC
  5
106
100
AcDbEntity
  8
TEXT
 62
256
370
-1
  6
ByLayer
100
AcDbCircle
 10
188.8750000000001137
 20
162.7499999999998863
 30
0.0
 40
0.75
100
AcDbArc
 50
180.0
 51
270.0
  0
LINE
  5
107
100
AcDbEntity
100
AcDbLine
  8
TEXT
 62
256
370
-1
  6
ByLayer
 10
188.1250000000001137
 20
162.7499999999998863
 30
0.0
 11
188.1250000000001137
 21
164.2499999999998863
 31
0.0
  0
ARC
  5
108
100
AcDbEntity
  8
TEXT
 62
256
370
-1
  6
ByLayer
100
AcDbCircle
 10
188.8750000000001137
 20
164.2499999999998863
 30
0.0
 40
0.75
100
AcDbArc
 50
90.0
 51
180.0
  0
LINE
  5
109
100
AcDbEntity
100
AcDbLine
  8
TEXT
 62
256
370
-1
  6
ByLayer
 10
188.8750000000001137
 20
164.9999999999998863
 30
0.0
 11
190.1250000000001137
 21
164.9999999999998863
 31
0.0
  0
LINE
  5
10A
100
AcDbEntity
100
AcDbLine
  8
TEXT
 62
256
370
-1
  6
ByLayer
 10
190.1250000000001137
 20
164.9999999999998863
 30
0.0
 11
190.1250000000001137
 21
160.4999999999998863
 31
0.0
  0
LINE
  5
10B
100
AcDbEntity
100
AcDbLine
  8
TEXT
 62
256
370
-1
  6
ByLayer
 10
191.6250000000001137
 20
164.9999999999998863
 30
0.0
 11
191.6250000000001137
 21
162.7499999999998863
 31
0.0
  0
ARC
  5
10C
100
AcDbEntity
  8
TEXT
 62
256
370
-1
  6
ByLayer
100
AcDbCircle
 10
192.3750000000001137
 20
162.7499999999998863
 30
0.0
 40
0.75
100
AcDbArc
 50
180.0
 51
270.0
  0
LINE
  5
10D
100
AcDbEntity
100
AcDbLine
  8
TEXT
 62
256
370
-1
  6
ByLayer
 10
192.3750000000001137
 20
161.9999999999998863
 30
0.0
 11
193.6250000000001137
 21
161.9999999999998863
 31
0.0
  0
LINE
  5
10E
100
AcDbEntity
100
AcDbLine
  8
TEXT
 62
256
370
-1
  6
ByLayer
 10
193.6250000000001137
 20
161.9999999999998863
 30
0.0
 11
193.6250000000001137
 21
164.9999999999998863
 31
0.0
  0
LINE
  5
10F
100
AcDbEntity
100
AcDbLine
  8
TEXT
 62
256
370
-1
  6
ByLayer
 10
195.3750000000001137
 20
164.9999999999998863
 30
0.0
 11
196.3750000000001137
 21
164.9999999999998863
 31
0.0
  0
ARC
  5
110
100
AcDbEntity
  8
TEXT
 62
256
370
-1
  6
ByLayer
100
AcDbCircle
 10
196.3750000000001137
 20
164.2499999999998863
 30
0.0
 40
0.75
100
AcDbArc
 50
0.0000000000000013
 51
90.0
  0
LINE
  5
111
100
AcDbEntity
100
AcDbLine
  8
TEXT
 62
256
370
-1
  6
ByLayer
 10
197.1250000000001137
 20
164.2499999999998863
 30
0.0
 11
197.1250000000001137
 21
161.9999999999998863
 31
0.0
  0
LINE
  5
112
100
AcDbEntity
100
AcDbLine
  8
TEXT
 62
256
370
-1
  6
ByLayer
 10
197.1250000000001137
 20
161.9999999999998863
 30
0.0
 11
195.8750000000001137
 21
161.9999999999998863
 31
0.0
  0
ARC
  5
113
100
AcDbEntity
  8
TEXT
 62
256
370
-1
  6
ByLayer
100
AcDbCircle
 10
195.8750000000001137
 20
162.7499999999998863
 30
0.0
 40
0.75
100
AcDbArc
 50
90.0
 51
270.0
  0
LINE
  5
114
100
AcDbEntity
100
AcDbLine
  8
TEXT
 62
256
370
-1
  6
ByLayer
 10
195.8750000000001137
 20
163.4999999999998863
 30
0.0
 11
197.1250000000001137
 21
163.4999999999998863
 31
0.0
  0
LINE
  5
115
100
AcDbEntity
100
AcDbLine
  8
TEXT
 62
256
370
-1
  6
ByLayer
 10
198.6250000000001137
 20
166.4999999999998863
 30
0.0
 11
198.6250000000001137
 21
162.4999999999998863
 31
0.0
  0
ARC
  5
116
100
AcDbEntity
  8
TEXT
 62
256
370
-1
  6
ByLayer
100
AcDbCircle
 10
199.1250000000001137
 20
162.4999999999998863
 30
0.0
 40
0.5
100
AcDbArc
 50
180.0
 51
270.0
  0
ARC
  5
117
100
AcDbEntity
  8
TEXT
 62
256
370
-1
  6
ByLayer
100
AcDbCircle
 10
201.7070925000001012
 20
162.9104399999998805
 30
0.0
 40
2.0286499999999998
100
AcDbArc
 50
63.097369999999998
 51
108.2755200000000002
  0
ARC
  5
118
100
AcDbEntity
  8
TEXT
 62
256
370
-1
  6
ByLayer
100
AcDbCircle
 10
201.2590940000001183
 20
164.2670299999998917
 30
0.0
 40
0.6
100
AcDbArc
 50
108.2745670000000047
 51
247.7905429999999853
  0
LINE
  5
119
100
AcDbEntity
100
AcDbLine
  8
TEXT
 62
256
370
-1
  6
ByLayer
 10
201.032287500000109
 20
163.7115449999998873
 30
0.0
 11
202.2177125000001183
 21
163.2275449999999068
 31
0.0
  0
ARC
  5
11A
100
AcDbEntity
  8
TEXT
 62
256
370
-1
  6
ByLayer
100
AcDbCircle
 10
201.9909060000001091
 20
162.672059999999874
 30
0.0
 40
0.5999949999999999
100
AcDbArc
 50
288.2749329999999759
 51
67.7911909999999978
  0
ARC
  5
11B
100
AcDbEntity
  8
TEXT
 62
256
370
-1
  6
ByLayer
100
AcDbCircle
 10
201.5429075000001262
 20
164.0286599999998884
 30
0.0
 40
2.0286599999999999
100
AcDbArc
 50
243.0976559999999722
 51
288.2755129999999895
  0
LINE
  5
11C
100
AcDbEntity
100
AcDbLine
  8
TEXT
 62
256
370
-1
  6
ByLayer
 10
204.1250072157432101
 20
163.4999999999998863
 30
0.0
 11
206.1250072157432101
 21
163.4999999999998863
 31
0.0
  0
LINE
  5
11D
100
AcDbEntity
100
AcDbLine
  8
TEXT
 62
256
370
-1
  6
ByLayer
 10
206.1250072157432101
 20
163.4999999999998863
 30
0.0
 11
206.1250072157432101
 21
163.9999999999998863
 31
0.0
  0
ARC
  5
11E
100
AcDbEntity
  8
TEXT
 62
256
370
-1
  6
ByLayer
100
AcDbCircle
 10
205.1250072157432101
 20
163.9999999999998863
 30
0.0
 40
1.0
100
AcDbArc
 50
0.0000000000000013
 51
180.0
  0
LINE
  5
11F
100
AcDbEntity
100
AcDbLine
  8
TEXT
 62
256
370
-1
  6
ByLayer
 10
204.1250072157432101
 20
163.9999999999998863
 30
0.0
 11
204.1250072157432101
 21
162.7499999999998863
 31
0.0
  0
ARC
  5
120
100
AcDbEntity
  8
TEXT
 62
256
370
-1
  6
ByLayer
100
AcDbCircle
 10
204.8750072157432101
 20
162.7499999999998863
 30
0.0
 40
0.75
100
AcDbArc
 50
180.0
 51
270.0
  0
LINE
  5
121
100
AcDbEntity
100
AcDbLine
  8
TEXT
 62
256
370
-1
  6
ByLayer
 10
204.8750072157432101
 20
161.9999999999998863
 30
0.0
 11
206.1250072157432101
 21
161.9999999999998863
 31
0.0
  0
LINE
  5
122
100
AcDbEntity
100
AcDbLine
  8
TEXT
 62
256
370
-1
  6
ByLayer
 10
207.6250072157432101
 20
164.9999999999998863
 30
0.0
 11
208.6250072157432101
 21
161.9999999999998863
 31
0.0
  0
LINE
  5
123
100
AcDbEntity
100
AcDbLine
  8
TEXT
 62
256
370
-1
  6
ByLayer
 10
208.6250072157432101
 20
161.9999999999998863
 30
0.0
 11
209.6250072157432101
 21
164.9999999999998863
 31
0.0
  0
LINE
  5
124
100
AcDbEntity
100
AcDbLine
  8
TEXT
 62
256
370
-1
  6
ByLayer
 10
211.1250072157432101
 20
163.9999999999998863
 30
0.0
 11
211.1250072157432101
 21
162.9999999999998863
 31
0.0
  0
ARC
  5
125
100
AcDbEntity
  8
TEXT
 62
256
370
-1
  6
ByLayer
100
AcDbCircle
 10
212.1250072157432101
 20
162.9999999999998863
 30
0.0
 40
1.0
100
AcDbArc
 50
180.0
 51
0.0000000000000013
  0
LINE
  5
126
100
AcDbEntity
100
AcDbLine
  8
TEXT
 62
256
370
-1
  6
ByLayer
 10
213.1250072157432101
 20
162.9999999999998863
 30
0.0
 11
213.1250072157432101
 21
163.9999999999998863
 31
0.0
  0
ARC
  5
127
100
AcDbEntity
  8
TEXT
 62
256
370
-1
  6
ByLayer
100
AcDbCircle
 10
212.1250072157432101
 20
163.9999999999998863
 30
0.0
 40
1.0
100
AcDbArc
 50
0.0000000000000013
 51
180.0
  0
LINE
  5
128
100
AcDbEntity
100
AcDbLine
  8
TEXT
 62
256
370
-1
  6
ByLayer
 10
214.6250072157432101
 20
166.4999999999998863
 30
0.0
 11
214.6250072157432101
 21
162.4999999999998863
 31
0.0
  0
ARC
  5
129
100
AcDbEntity
  8
TEXT
 62
256
370
-1
  6
ByLayer
100
AcDbCircle
 10
215.1250072157432101
 20
162.4999999999998863
 30
0.0
 40
0.5
100
AcDbArc
 50
180.0
 51
270.0
  0
LINE
  5
12A
100
AcDbEntity
100
AcDbLine
  8
TEXT
 62
256
370
-1
  6
ByLayer
 10
174.7500000000001137
 20
166.2499999999998863
 30
0.0
 11
175.1762139540037992
 21
166.6043290943642887
 31
0.0
  0
LINE
  5
12B
100
AcDbEntity
100
AcDbLine
  8
TEXT
 62
256
370
-1
  6
ByLayer
 10
131.5
 20
74.4999999999999432
 30
0.0
 11
133.0
 21
74.4999999999999432
 31
0.0
  0
ARC
  5
12C
100
AcDbEntity
  8
TEXT
 62
256
370
-1
  6
ByLayer
100
AcDbCircle
 10
133.0
 20
75.4999999999999432
 30
0.0
 40
1.0
100
AcDbArc
 50
270.0
 51
0.0000000000000013
  0
LINE
  5
12D
100
AcDbEntity
100
AcDbLine
  8
TEXT
 62
256
370
-1
  6
ByLayer
 10
134.0
 20
75.4999999999999432
 30
0.0
 11
134.0
 21
77.9999999999999432
 31
0.0
  0
ARC
  5
12E
100
AcDbEntity
  8
TEXT
 62
256
370
-1
  6
ByLayer
100
AcDbCircle
 10
133.0
 20
77.9999999999999432
 30
0.0
 40
1.0
100
AcDbArc
 50
0.0000000000000013
 51
90.0
  0
LINE
  5
12F
100
AcDbEntity
100
AcDbLine
  8
TEXT
 62
256
370
-1
  6
ByLayer
 10
133.0
 20
78.9999999999999432
 30
0.0
 11
131.5
 21
78.9999999999999432
 31
0.0
  0
LINE
  5
130
100
AcDbEntity
100
AcDbLine
  8
TEXT
 62
256
370
-1
  6
ByLayer
 10
131.5
 20
78.9999999999999432
 30
0.0
 11
131.5
 21
74.4999999999999432
 31
0.0
  0
LINE
  5
131
100
AcDbEntity
100
AcDbLine
  8
TEXT
 62
256
370
-1
  6
ByLayer
 10
135.5
 20
74.4999999999999432
 30
0.0
 11
135.5
 21
77.4999999999999432
 31
0.0
  0
LINE
  5
132
100
AcDbEntity
100
AcDbLine
  8
TEXT
 62
256
370
-1
  6
ByLayer
 10
135.5
 20
78.7499999999999432
 30
0.0
 11
135.5
 21
78.9999999999999432
 31
0.0
  0
LINE
  5
133
100
AcDbEntity
100
AcDbLine
  8
TEXT
 62
256
370
-1
  6
ByLayer
 10
137.0
 20
78.9999999999999432
 30
0.0
 11
137.0
 21
74.4999999999999432
 31
0.0
  0
LINE
  5
134
100
AcDbEntity
100
AcDbLine
  8
TEXT
 62
256
370
-1
  6
ByLayer
 10
137.0
 20
74.4999999999999432
 30
0.0
 11
138.25
 21
74.4999999999999432
 31
0.0
  0
ARC
  5
135
100
AcDbEntity
  8
TEXT
 62
256
370
-1
  6
ByLayer
100
AcDbCircle
 10
138.25
 20
75.2499999999999432
 30
0.0
 40
0.75
100
AcDbArc
 50
270.0
 51
0.0000000000000013
  0
LINE
  5
136
100
AcDbEntity
100
AcDbLine
  8
TEXT
 62
256
370
-1
  6
ByLayer
 10
139.0
 20
75.2499999999999432
 30
0.0
 11
139.0
 21
76.7499999999999432
 31
0.0
  0
ARC
  5
137
100
AcDbEntity
  8
TEXT
 62
256
370
-1
  6
ByLayer
100
AcDbCircle
 10
138.25
 20
76.7499999999999432
 30
0.0
 40
0.75
100
AcDbArc
 50
0.0000000000000013
 51
90.0
  0
LINE
  5
138
100
AcDbEntity
100
AcDbLine
  8
TEXT
 62
256
370
-1
  6
ByLayer
 10
138.25
 20
77.4999999999999432
 30
0.0
 11
137.0
 21
77.4999999999999432
 31
0.0
  0
LINE
  5
139
100
AcDbEntity
100
AcDbLine
  8
TEXT
 62
256
370
-1
  6
ByLayer
 10
140.5
 20
77.4999999999999432
 30
0.0
 11
140.5
 21
75.2499999999999432
 31
0.0
  0
ARC
  5
13A
100
AcDbEntity
  8
TEXT
 62
256
370
-1
  6
ByLayer
100
AcDbCircle
 10
141.25
 20
75.2499999999999432
 30
0.0
 40
0.75
100
AcDbArc
 50
180.0
 51
270.0
  0
LINE
  5
13B
100
AcDbEntity
100
AcDbLine
  8
TEXT
 62
256
370
-1
  6
ByLayer
 10
141.25
 20
74.4999999999999432
 30
0.0
 11
142.5
 21
74.4999999999999432
 31
0.0
  0
LINE
  5
13C
100
AcDbEntity
100
AcDbLine
  8
TEXT
 62
256
370
-1
  6
ByLayer
 10
142.5
 20
74.4999999999999432
 30
0.0
 11
142.5
 21
77.4999999999999432
 31
0.0
  0
LINE
  5
13D
100
AcDbEntity
100
AcDbLine
  8
TEXT
 62
256
370
-1
  6
ByLayer
 10
144.0
 20
74.4999999999999432
 30
0.0
 11
144.0
 21
77.4999999999999432
 31
0.0
  0
LINE
  5
13E
100
AcDbEntity
100
AcDbLine
  8
TEXT
 62
256
370
-1
  6
ByLayer
 10
144.0
 20
78.7499999999999432
 30
0.0
 11
144.0
 21
78.9999999999999432
 31
0.0
  0
LINE
  5
13F
100
AcDbEntity
100
AcDbLine
  8
TEXT
 62
256
370
-1
  6
ByLayer
 10
145.5
 20
77.4999999999999432
 30
0.0
 11
147.5
 21
74.4999999999999432
 31
0.0
  0
LINE
  5
140
100
AcDbEntity
100
AcDbLine
  8
TEXT
 62
256
370
-1
  6
ByLayer
 10
145.5
 20
74.4999999999999432
 30
0.0
 11
147.5
 21
77.4999999999999432
 31
0.0
  0
LINE
  5
141
100
AcDbEntity
100
AcDbLine
  8
TEXT
 62
256
370
-1
  6
ByLayer
 10
149.25
 20
77.4999999999999432
 30
0.0
 11
150.25
 21
77.4999999999999432
 31
0.0
  0
ARC
  5
142
100
AcDbEntity
  8
TEXT
 62
256
370
-1
  6
ByLayer
100
AcDbCircle
 10
150.25
 20
76.7499999999999432
 30
0.0
 40
0.75
100
AcDbArc
 50
0.0000000000000013
 51
90.0
  0
LINE
  5
143
100
AcDbEntity
100
AcDbLine
  8
TEXT
 62
256
370
-1
  6
ByLayer
 10
151.0
 20
76.7499999999999432
 30
0.0
 11
151.0
 21
74.4999999999999432
 31
0.0
  0
LINE
  5
144
100
AcDbEntity
100
AcDbLine
  8
TEXT
 62
256
370
-1
  6
ByLayer
 10
151.0
 20
74.4999999999999432
 30
0.0
 11
149.75
 21
74.4999999999999432
 31
0.0
  0
ARC
  5
145
100
AcDbEntity
  8
TEXT
 62
256
370
-1
  6
ByLayer
100
AcDbCircle
 10
149.75
 20
75.2499999999999432
 30
0.0
 40
0.75
100
AcDbArc
 50
90.0
 51
270.0
  0
LINE
  5
146
100
AcDbEntity
100
AcDbLine
  8
TEXT
 62
256
370
-1
  6
ByLayer
 10
149.75
 20
75.9999999999999432
 30
0.0
 11
151.0
 21
75.9999999999999432
 31
0.0
  0
LINE
  5
147
100
AcDbEntity
100
AcDbLine
  8
TEXT
 62
256
370
-1
  6
ByLayer
 10
152.5
 20
74.4999999999999432
 30
0.0
 11
152.5
 21
77.4999999999999432
 31
0.0
  0
LINE
  5
148
100
AcDbEntity
100
AcDbLine
  8
TEXT
 62
256
370
-1
  6
ByLayer
 10
152.5
 20
77.4999999999999432
 30
0.0
 11
153.5
 21
77.4999999999999432
 31
0.0
  0
ARC
  5
149
100
AcDbEntity
  8
TEXT
 62
256
370
-1
  6
ByLayer
100
AcDbCircle
 10
153.5
 20
76.9999999999999432
 30
0.0
 40
0.5
100
AcDbArc
 50
0.0000000000000013
 51
90.0
  0
LINE
  5
14A
100
AcDbEntity
100
AcDbLine
  8
TEXT
 62
256
370
-1
  6
ByLayer
 10
158.875
 20
77.4999999999999432
 30
0.0
 11
158.875
 21
75.2499999999999432
 31
0.0
  0
ARC
  5
14B
100
AcDbEntity
  8
TEXT
 62
256
370
-1
  6
ByLayer
100
AcDbCircle
 10
159.625
 20
75.2499999999999432
 30
0.0
 40
0.75
100
AcDbArc
 50
180.0
 51
270.0
  0
LINE
  5
14C
100
AcDbEntity
100
AcDbLine
  8
TEXT
 62
256
370
-1
  6
ByLayer
 10
159.625
 20
74.4999999999999432
 30
0.0
 11
160.875
 21
74.4999999999999432
 31
0.0
  0
LINE
  5
14D
100
AcDbEntity
100
AcDbLine
  8
TEXT
 62
256
370
-1
  6
ByLayer
 10
160.875
 20
74.4999999999999432
 30
0.0
 11
160.875
 21
77.4999999999999432
 31
0.0
  0
LINE
  5
14E
100
AcDbEntity
100
AcDbLine
  8
TEXT
 62
256
370
-1
  6
ByLayer
 10
162.375
 20
74.4999999999999432
 30
0.0
 11
162.375
 21
77.4999999999999432
 31
0.0
  0
LINE
  5
14F
100
AcDbEntity
100
AcDbLine
  8
TEXT
 62
256
370
-1
  6
ByLayer
 10
162.375
 20
77.4999999999999432
 30
0.0
 11
163.625
 21
77.4999999999999432
 31
0.0
  0
ARC
  5
150
100
AcDbEntity
  8
TEXT
 62
256
370
-1
  6
ByLayer
100
AcDbCircle
 10
163.625
 20
76.7499999999999432
 30
0.0
 40
0.75
100
AcDbArc
 50
0.0000000000000013
 51
90.0
  0
LINE
  5
151
100
AcDbEntity
100
AcDbLine
  8
TEXT
 62
256
370
-1
  6
ByLayer
 10
164.375
 20
76.7499999999999432
 30
0.0
 11
164.375
 21
74.4999999999999432
 31
0.0
  0
LINE
  5
152
100
AcDbEntity
100
AcDbLine
  8
TEXT
 62
256
370
-1
  6
ByLayer
 10
166.125
 20
77.4999999999999432
 30
0.0
 11
167.125
 21
77.4999999999999432
 31
0.0
  0
ARC
  5
153
100
AcDbEntity
  8
TEXT
 62
256
370
-1
  6
ByLayer
100
AcDbCircle
 10
167.125
 20
76.7499999999999432
 30
0.0
 40
0.75
100
AcDbArc
 50
0.0000000000000013
 51
90.0
  0
LINE
  5
154
100
AcDbEntity
100
AcDbLine
  8
TEXT
 62
256
370
-1
  6
ByLayer
 10
167.875
 20
76.7499999999999432
 30
0.0
 11
167.875
 21
74.4999999999999432
 31
0.0
  0
LINE
  5
155
100
AcDbEntity
100
AcDbLine
  8
TEXT
 62
256
370
-1
  6
ByLayer
 10
167.875
 20
74.4999999999999432
 30
0.0
 11
166.625
 21
74.4999999999999432
 31
0.0
  0
ARC
  5
156
100
AcDbEntity
  8
TEXT
 62
256
370
-1
  6
ByLayer
100
AcDbCircle
 10
166.625
 20
75.2499999999999432
 30
0.0
 40
0.75
100
AcDbArc
 50
90.0
 51
270.0
  0
LINE
  5
157
100
AcDbEntity
100
AcDbLine
  8
TEXT
 62
256
370
-1
  6
ByLayer
 10
166.625
 20
75.9999999999999432
 30
0.0
 11
167.875
 21
75.9999999999999432
 31
0.0
  0
LINE
  5
158
100
AcDbEntity
100
AcDbLine
  8
TEXT
 62
256
370
-1
  6
ByLayer
 10
172.75
 20
78.9999999999999432
 30
0.0
 11
172.75
 21
74.9999999999999432
 31
0.0
  0
ARC
  5
159
100
AcDbEntity
  8
TEXT
 62
256
370
-1
  6
ByLayer
100
AcDbCircle
 10
173.25
 20
74.9999999999999432
 30
0.0
 40
0.5
100
AcDbArc
 50
180.0
 51
270.0
  0
LINE
  5
15A
100
AcDbEntity
100
AcDbLine
  8
TEXT
 62
256
370
-1
  6
ByLayer
 10
174.75
 20
74.4999999999999432
 30
0.0
 11
174.75
 21
77.4999999999999432
 31
0.0
  0
LINE
  5
15B
100
AcDbEntity
100
AcDbLine
  8
TEXT
 62
256
370
-1
  6
ByLayer
 10
176.25
 20
74.4999999999999432
 30
0.0
 11
176.25
 21
77.4999999999999432
 31
0.0
  0
LINE
  5
15C
100
AcDbEntity
100
AcDbLine
  8
TEXT
 62
256
370
-1
  6
ByLayer
 10
176.25
 20
77.4999999999999432
 30
0.0
 11
177.5
 21
77.4999999999999432
 31
0.0
  0
ARC
  5
15D
100
AcDbEntity
  8
TEXT
 62
256
370
-1
  6
ByLayer
100
AcDbCircle
 10
177.5
 20
76.7499999999999432
 30
0.0
 40
0.75
100
AcDbArc
 50
0.0000000000000013
 51
90.0
  0
LINE
  5
15E
100
AcDbEntity
100
AcDbLine
  8
TEXT
 62
256
370
-1
  6
ByLayer
 10
178.25
 20
76.7499999999999432
 30
0.0
 11
178.25
 21
74.4999999999999432
 31
0.0
  0
LINE
  5
15F
100
AcDbEntity
100
AcDbLine
  8
TEXT
 62
256
370
-1
  6
ByLayer
 10
179.75
 20
74.4999999999999432
 30
0.0
 11
179.75
 21
77.4999999999999432
 31
0.0
  0
LINE
  5
160
100
AcDbEntity
100
AcDbLine
  8
TEXT
 62
256
370
-1
  6
ByLayer
 10
179.75
 20
78.7499999999999432
 30
0.0
 11
179.75
 21
78.9999999999999432
 31
0.0
  0
LINE
  5
161
100
AcDbEntity
100
AcDbLine
  8
TEXT
 62
256
370
-1
  6
ByLayer
 10
181.5
 20
77.4999999999999432
 30
0.0
 11
182.5
 21
77.4999999999999432
 31
0.0
  0
ARC
  5
162
100
AcDbEntity
  8
TEXT
 62
256
370
-1
  6
ByLayer
100
AcDbCircle
 10
182.5
 20
76.7499999999999432
 30
0.0
 40
0.75
100
AcDbArc
 50
0.0000000000000013
 51
90.0
  0
LINE
  5
163
100
AcDbEntity
100
AcDbLine
  8
TEXT
 62
256
370
-1
  6
ByLayer
 10
183.25
 20
76.7499999999999432
 30
0.0
 11
183.25
 21
74.4999999999999432
 31
0.0
  0
LINE
  5
164
100
AcDbEntity
100
AcDbLine
  8
TEXT
 62
256
370
-1
  6
ByLayer
 10
183.25
 20
74.4999999999999432
 30
0.0
 11
182.0
 21
74.4999999999999432
 31
0.0
  0
ARC
  5
165
100
AcDbEntity
  8
TEXT
 62
256
370
-1
  6
ByLayer
100
AcDbCircle
 10
182.0
 20
75.2499999999999432
 30
0.0
 40
0.75
100
AcDbArc
 50
90.0
 51
270.0
  0
LINE
  5
166
100
AcDbEntity
100
AcDbLine
  8
TEXT
 62
256
370
-1
  6
ByLayer
 10
182.0
 20
75.9999999999999432
 30
0.0
 11
183.25
 21
75.9999999999999432
 31
0.0
  0
LINE
  5
167
100
AcDbEntity
100
AcDbLine
  8
TEXT
 62
256
370
-1
  6
ByLayer
 10
188.125
 20
74.4999999999999432
 30
0.0
 11
189.375
 21
74.4999999999999432
 31
0.0
  0
ARC
  5
168
100
AcDbEntity
  8
TEXT
 62
256
370
-1
  6
ByLayer
100
AcDbCircle
 10
189.375
 20
75.2499999999999432
 30
0.0
 40
0.75
100
AcDbArc
 50
270.0
 51
0.0000000000000013
  0
LINE
  5
169
100
AcDbEntity
100
AcDbLine
  8
TEXT
 62
256
370
-1
  6
ByLayer
 10
190.125
 20
75.2499999999999432
 30
0.0
 11
190.125
 21
76.7499999999999432
 31
0.0
  0
ARC
  5
16A
100
AcDbEntity
  8
TEXT
 62
256
370
-1
  6
ByLayer
100
AcDbCircle
 10
189.375
 20
76.7499999999999432
 30
0.0
 40
0.75
100
AcDbArc
 50
0.0000000000000013
 51
90.0
  0
LINE
  5
16B
100
AcDbEntity
100
AcDbLine
  8
TEXT
 62
256
370
-1
  6
ByLayer
 10
189.375
 20
77.4999999999999432
 30
0.0
 11
188.125
 21
77.4999999999999432
 31
0.0
  0
LINE
  5
16C
100
AcDbEntity
100
AcDbLine
  8
TEXT
 62
256
370
-1
  6
ByLayer
 10
188.125
 20
77.4999999999999432
 30
0.0
 11
188.125
 21
72.9999999999999432
 31
0.0
  0
LINE
  5
16D
100
AcDbEntity
100
AcDbLine
  8
TEXT
 62
256
370
-1
  6
ByLayer
 10
191.625
 20
75.9999999999999432
 30
0.0
 11
193.625
 21
75.9999999999999432
 31
0.0
  0
LINE
  5
16E
100
AcDbEntity
100
AcDbLine
  8
TEXT
 62
256
370
-1
  6
ByLayer
 10
193.625
 20
75.9999999999999432
 30
0.0
 11
193.625
 21
76.4999999999999432
 31
0.0
  0
ARC
  5
16F
100
AcDbEntity
  8
TEXT
 62
256
370
-1
  6
ByLayer
100
AcDbCircle
 10
192.625
 20
76.4999999999999432
 30
0.0
 40
1.0
100
AcDbArc
 50
0.0000000000000013
 51
180.0
  0
LINE
  5
170
100
AcDbEntity
100
AcDbLine
  8
TEXT
 62
256
370
-1
  6
ByLayer
 10
191.625
 20
76.4999999999999432
 30
0.0
 11
191.625
 21
75.2499999999999432
 31
0.0
  0
ARC
  5
171
100
AcDbEntity
  8
TEXT
 62
256
370
-1
  6
ByLayer
100
AcDbCircle
 10
192.375
 20
75.2499999999999432
 30
0.0
 40
0.75
100
AcDbArc
 50
180.0
 51
270.0
  0
LINE
  5
172
100
AcDbEntity
100
AcDbLine
  8
TEXT
 62
256
370
-1
  6
ByLayer
 10
192.375
 20
74.4999999999999432
 30
0.0
 11
193.625
 21
74.4999999999999432
 31
0.0
  0
LINE
  5
173
100
AcDbEntity
100
AcDbLine
  8
TEXT
 62
256
370
-1
  6
ByLayer
 10
195.125
 20
74.4999999999999432
 30
0.0
 11
195.125
 21
77.4999999999999432
 31
0.0
  0
LINE
  5
174
100
AcDbEntity
100
AcDbLine
  8
TEXT
 62
256
370
-1
  6
ByLayer
 10
195.125
 20
77.4999999999999432
 30
0.0
 11
196.125
 21
77.4999999999999432
 31
0.0
  0
ARC
  5
175
100
AcDbEntity
  8
TEXT
 62
256
370
-1
  6
ByLayer
100
AcDbCircle
 10
196.125
 20
76.9999999999999432
 30
0.0
 40
0.5
100
AcDbArc
 50
0.0000000000000013
 51
90.0
  0
LINE
  5
176
100
AcDbEntity
100
AcDbLine
  8
TEXT
 62
256
370
-1
  6
ByLayer
 10
198.125
 20
74.4999999999999432
 30
0.0
 11
199.375
 21
74.4999999999999432
 31
0.0
  0
ARC
  5
177
100
AcDbEntity
  8
TEXT
 62
256
370
-1
  6
ByLayer
100
AcDbCircle
 10
199.375
 20
75.2499999999999432
 30
0.0
 40
0.75
100
AcDbArc
 50
270.0
 51
0.0000000000000013
  0
LINE
  5
178
100
AcDbEntity
100
AcDbLine
  8
TEXT
 62
256
370
-1
  6
ByLayer
 10
200.125
 20
75.2499999999999432
 30
0.0
 11
200.125
 21
76.7499999999999432
 31
0.0
  0
ARC
  5
179
100
AcDbEntity
  8
TEXT
 62
256
370
-1
  6
ByLayer
100
AcDbCircle
 10
199.375
 20
76.7499999999999432
 30
0.0
 40
0.75
100
AcDbArc
 50
0.0000000000000013
 51
90.0
  0
LINE
  5
17A
100
AcDbEntity
100
AcDbLine
  8
TEXT
 62
256
370
-1
  6
ByLayer
 10
199.375
 20
77.4999999999999432
 30
0.0
 11
198.125
 21
77.4999999999999432
 31
0.0
  0
LINE
  5
17B
100
AcDbEntity
100
AcDbLine
  8
TEXT
 62
256
370
-1
  6
ByLayer
 10
198.125
 20
77.4999999999999432
 30
0.0
 11
198.125
 21
72.9999999999999432
 31
0.0
  0
LINE
  5
17C
100
AcDbEntity
100
AcDbLine
  8
TEXT
 62
256
370
-1
  6
ByLayer
 10
201.625
 20
75.9999999999999432
 30
0.0
 11
203.625
 21
75.9999999999999432
 31
0.0
  0
LINE
  5
17D
100
AcDbEntity
100
AcDbLine
  8
TEXT
 62
256
370
-1
  6
ByLayer
 10
203.625
 20
75.9999999999999432
 30
0.0
 11
203.625
 21
76.4999999999999432
 31
0.0
  0
ARC
  5
17E
100
AcDbEntity
  8
TEXT
 62
256
370
-1
  6
ByLayer
100
AcDbCircle
 10
202.625
 20
76.4999999999999432
 30
0.0
 40
1.0
100
AcDbArc
 50
0.0000000000000013
 51
180.0
  0
LINE
  5
17F
100
AcDbEntity
100
AcDbLine
  8
TEXT
 62
256
370
-1
  6
ByLayer
 10
201.625
 20
76.4999999999999432
 30
0.0
 11
201.625
 21
75.2499999999999432
 31
0.0
  0
ARC
  5
180
100
AcDbEntity
  8
TEXT
 62
256
370
-1
  6
ByLayer
100
AcDbCircle
 10
202.375
 20
75.2499999999999432
 30
0.0
 40
0.75
100
AcDbArc
 50
180.0
 51
270.0
  0
LINE
  5
181
100
AcDbEntity
100
AcDbLine
  8
TEXT
 62
256
370
-1
  6
ByLayer
 10
202.375
 20
74.4999999999999432
 30
0.0
 11
203.625
 21
74.4999999999999432
 31
0.0
  0
LINE
  5
182
100
AcDbEntity
100
AcDbLine
  8
TEXT
 62
256
370
-1
  6
ByLayer
 10
205.125
 20
74.4999999999999432
 30
0.0
 11
205.125
 21
77.4999999999999432
 31
0.0
  0
LINE
  5
183
100
AcDbEntity
100
AcDbLine
  8
TEXT
 62
256
370
-1
  6
ByLayer
 10
205.125
 20
77.4999999999999432
 30
0.0
 11
206.375
 21
77.4999999999999432
 31
0.0
  0
ARC
  5
184
100
AcDbEntity
  8
TEXT
 62
256
370
-1
  6
ByLayer
100
AcDbCircle
 10
206.375
 20
76.7499999999999432
 30
0.0
 40
0.75
100
AcDbArc
 50
0.0000000000000013
 51
90.0
  0
LINE
  5
185
100
AcDbEntity
100
AcDbLine
  8
TEXT
 62
256
370
-1
  6
ByLayer
 10
207.125
 20
76.7499999999999432
 30
0.0
 11
207.125
 21
74.4999999999999432
 31
0.0
  0
LINE
  5
186
100
AcDbEntity
100
AcDbLine
  8
TEXT
 62
256
370
-1
  6
ByLayer
 10
210.625
 20
78.9999999999999432
 30
0.0
 11
210.625
 21
74.4999999999999432
 31
0.0
  0
LINE
  5
187
100
AcDbEntity
100
AcDbLine
  8
TEXT
 62
256
370
-1
  6
ByLayer
 10
210.625
 20
74.4999999999999432
 30
0.0
 11
209.375
 21
74.4999999999999432
 31
0.0
  0
ARC
  5
188
100
AcDbEntity
  8
TEXT
 62
256
370
-1
  6
ByLayer
100
AcDbCircle
 10
209.375
 20
75.2499999999999432
 30
0.0
 40
0.75
100
AcDbArc
 50
180.0
 51
270.0
  0
LINE
  5
189
100
AcDbEntity
100
AcDbLine
  8
TEXT
 62
256
370
-1
  6
ByLayer
 10
208.625
 20
75.2499999999999432
 30
0.0
 11
208.625
 21
76.7499999999999432
 31
0.0
  0
ARC
  5
18A
100
AcDbEntity
  8
TEXT
 62
256
370
-1
  6
ByLayer
100
AcDbCircle
 10
209.375
 20
76.7499999999999432
 30
0.0
 40
0.75
100
AcDbArc
 50
90.0
 51
180.0
  0
LINE
  5
18B
100
AcDbEntity
100
AcDbLine
  8
TEXT
 62
256
370
-1
  6
ByLayer
 10
209.375
 20
77.4999999999999432
 30
0.0
 11
210.625
 21
77.4999999999999432
 31
0.0
  0
LINE
  5
18C
100
AcDbEntity
100
AcDbLine
  8
TEXT
 62
256
370
-1
  6
ByLayer
 10
212.125
 20
74.4999999999999432
 30
0.0
 11
212.125
 21
77.4999999999999432
 31
0.0
  0
LINE
  5
18D
100
AcDbEntity
100
AcDbLine
  8
TEXT
 62
256
370
-1
  6
ByLayer
 10
212.125
 20
78.7499999999999432
 30
0.0
 11
212.125
 21
78.9999999999999432
 31
0.0
  0
LINE
  5
18E
100
AcDbEntity
100
AcDbLine
  8
TEXT
 62
256
370
-1
  6
ByLayer
 10
215.125
 20
77.4999999999999432
 30
0.0
 11
214.375
 21
77.4999999999999432
 31
0.0
  0
ARC
  5
18F
100
AcDbEntity
  8
TEXT
 62
256
370
-1
  6
ByLayer
100
AcDbCircle
 10
214.375
 20
76.7499999999999432
 30
0.0
 40
0.75
100
AcDbArc
 50
90.0
 51
180.0
  0
LINE
  5
190
100
AcDbEntity
100
AcDbLine
  8
TEXT
 62
256
370
-1
  6
ByLayer
 10
213.625
 20
76.7499999999999432
 30
0.0
 11
213.625
 21
75.2499999999999432
 31
0.0
  0
ARC
  5
191
100
AcDbEntity
  8
TEXT
 62
256
370
-1
  6
ByLayer
100
AcDbCircle
 10
214.375
 20
75.2499999999999432
 30
0.0
 40
0.75
100
AcDbArc
 50
180.0
 51
270.0
  0
LINE
  5
192
100
AcDbEntity
100
AcDbLine
  8
TEXT
 62
256
370
-1
  6
ByLayer
 10
214.375
 20
74.4999999999999432
 30
0.0
 11
215.125
 21
74.4999999999999432
 31
0.0
  0
LINE
  5
193
100
AcDbEntity
100
AcDbLine
  8
TEXT
 62
256
370
-1
  6
ByLayer
 10
216.625
 20
77.4999999999999432
 30
0.0
 11
216.625
 21
75.2499999999999432
 31
0.0
  0
ARC
  5
194
100
AcDbEntity
  8
TEXT
 62
256
370
-1
  6
ByLayer
100
AcDbCircle
 10
217.375
 20
75.2499999999999432
 30
0.0
 40
0.75
100
AcDbArc
 50
180.0
 51
270.0
  0
LINE
  5
195
100
AcDbEntity
100
AcDbLine
  8
TEXT
 62
256
370
-1
  6
ByLayer
 10
217.375
 20
74.4999999999999432
 30
0.0
 11
218.625
 21
74.4999999999999432
 31
0.0
  0
LINE
  5
196
100
AcDbEntity
100
AcDbLine
  8
TEXT
 62
256
370
-1
  6
ByLayer
 10
218.625
 20
74.4999999999999432
 30
0.0
 11
218.625
 21
77.4999999999999432
 31
0.0
  0
LINE
  5
197
100
AcDbEntity
100
AcDbLine
  8
TEXT
 62
256
370
-1
  6
ByLayer
 10
220.125
 20
78.9999999999999432
 30
0.0
 11
220.125
 21
74.9999999999999432
 31
0.0
  0
ARC
  5
198
100
AcDbEntity
  8
TEXT
 62
256
370
-1
  6
ByLayer
100
AcDbCircle
 10
220.625
 20
74.9999999999999432
 30
0.0
 40
0.5
100
AcDbArc
 50
180.0
 51
270.0
  0
LINE
  5
199
100
AcDbEntity
100
AcDbLine
  8
TEXT
 62
256
370
-1
  6
ByLayer
 10
222.375
 20
77.4999999999999432
 30
0.0
 11
223.375
 21
77.4999999999999432
 31
0.0
  0
ARC
  5
19A
100
AcDbEntity
  8
TEXT
 62
256
370
-1
  6
ByLayer
100
AcDbCircle
 10
223.375
 20
76.7499999999999432
 30
0.0
 40
0.75
100
AcDbArc
 50
0.0000000000000013
 51
90.0
  0
LINE
  5
19B
100
AcDbEntity
100
AcDbLine
  8
TEXT
 62
256
370
-1
  6
ByLayer
 10
224.125
 20
76.7499999999999432
 30
0.0
 11
224.125
 21
74.4999999999999432
 31
0.0
  0
LINE
  5
19C
100
AcDbEntity
100
AcDbLine
  8
TEXT
 62
256
370
-1
  6
ByLayer
 10
224.125
 20
74.4999999999999432
 30
0.0
 11
222.875
 21
74.4999999999999432
 31
0.0
  0
ARC
  5
19D
100
AcDbEntity
  8
TEXT
 62
256
370
-1
  6
ByLayer
100
AcDbCircle
 10
222.875
 20
75.2499999999999432
 30
0.0
 40
0.75
100
AcDbArc
 50
90.0
 51
270.0
  0
LINE
  5
19E
100
AcDbEntity
100
AcDbLine
  8
TEXT
 62
256
370
-1
  6
ByLayer
 10
222.875
 20
75.9999999999999432
 30
0.0
 11
224.125
 21
75.9999999999999432
 31
0.0
  0
LINE
  5
19F
100
AcDbEntity
100
AcDbLine
  8
TEXT
 62
256
370
-1
  6
ByLayer
 10
225.625
 20
74.4999999999999432
 30
0.0
 11
225.625
 21
77.4999999999999432
 31
0.0
  0
LINE
  5
1A0
100
AcDbEntity
100
AcDbLine
  8
TEXT
 62
256
370
-1
  6
ByLayer
 10
225.625
 20
77.4999999999999432
 30
0.0
 11
226.625
 21
77.4999999999999432
 31
0.0
  0
ARC
  5
1A1
100
AcDbEntity
  8
TEXT
 62
256
370
-1
  6
ByLayer
100
AcDbCircle
 10
226.625
 20
76.9999999999999432
 30
0.0
 40
0.5
100
AcDbArc
 50
0.0000000000000013
 51
90.0
  0
LINE
  5
1A2
100
AcDbEntity
100
AcDbLine
  8
TEXT
 62
256
370
-1
  6
ByLayer
 10
174.75
 20
78.7499999999999432
 30
0.0
 11
175.1764190852389049
 21
79.1112345098298704
 31
0.0
  0
ENDSEC
  0
SECTION
  2
OBJECTS
  0
DICTIONARY
  5
C
100
AcDbDictionary
280
0
281
1
  3
ACAD_GROUP
350
D
  3
ACAD_LAYOUT
350
1A
  3
ACAD_MLINESTYLE
350
17
  3
ACAD_PLOTSETTINGS
350
19
  3
ACAD_PLOTSTYLENAME
350
E
  3
AcDbVariableDictionary
350
1A3
  0
DICTIONARY
  5
D
100
AcDbDictionary
280
0
281
1
  0
ACDBDICTIONARYWDFLT
  5
E
100
AcDbDictionary
281
1
  3
Normal
350
F
100
AcDbDictionaryWithDefault
340
F
  0
ACDBPLACEHOLDER
  5
F
  0
DICTIONARY
  5
17
100
AcDbDictionary
280
0
281
1
  3
Standard
350
18
  0
MLINESTYLE
  5
18
100
AcDbMlineStyle
  2
STANDARD
 70
0
  3

 62
256
 51
90.0
 52
90.0
 71
2
 49
0.5
 62
256
  6
BYLAYER
 49
-0.5
 62
256
  6
BYLAYER
  0
DICTIONARY
  5
19
100
AcDbDictionary
280
0
281
1
  0
DICTIONARY
  5
1A
100
AcDbDictionary
281
1
  3
Layout1
350
1E
  3
Layout2
350
26
  3
Model
350
22
  0
LAYOUT
  5
1E
100
AcDbPlotSettings
  1

  2
C:\Program Files\AutoCAD 2002\plotters\DWF ePlot (optimized for plotting).pc3
  4

  6

 40
0.0
 41
0.0
 42
0.0
 43
0.0
 44
0.0
 45
0.0
 46
0.0
 47
0.0
 48
0.0
 49
0.0
140
0.0
141
0.0
142
1.0
143
1.0
 70
688
 72
0
 73
0
 74
5
  7

 75
16
147
1.0
148
0.0
149
0.0
100
AcDbLayout
  1
Layout1
 70
1
 71
1
 10
0.0
 20
0.0
 11
420.0
 21
297.0
 12
0.0
 22
0.0
 32
0.0
 14
100000000000000000000.0
 24
100000000000000000000.0
 34
100000000000000000000.0
 15
-100000000000000000000.0
 25
-100000000000000000000.0
 35
-100000000000000000000.0
146
0.0
 13
0.0
 23
0.0
 33
0.0
 16
1.0
 26
0.0
 36
0.0
 17
0.0
 27
1.0
 37
0.0
 76
0
330
1B
  0
LAYOUT
  5
22
100
AcDbPlotSettings
  1

  2
C:\Program Files\AutoCAD 2002\plotters\DWF ePlot (optimized for plotting).pc3
  4

  6

 40
0.0
 41
0.0
 42
0.0
 43
0.0
 44
0.0
 45
0.0
 46
0.0
 47
0.0
 48
0.0
 49
0.0
140
0.0
141
0.0
142
1.0
143
1.0
 70
1712
 72
0
 73
0
 74
0
  7

 75
0
147
1.0
148
0.0
149
0.0
100
AcDbLayout
  1
Model
 70
1
 71
0
 10
0.0
 20
0.0
 11
12.0
 21
9.0
 12
0.0
 22
0.0
 32
0.0
 14
0.0
 24
0.0
 34
0.0
 15
0.0
 25
0.0
 35
0.0
146
0.0
 13
0.0
 23
0.0
 33
0.0
 16
1.0
 26
0.0
 36
0.0
 17
0.0
 27
1.0
 37
0.0
 76
0
330
1F
  0
LAYOUT
  5
26
100
AcDbPlotSettings
  1

  2
C:\Program Files\AutoCAD 2002\plotters\DWF ePlot (optimized for plotting).pc3
  4

  6

 40
0.0
 41
0.0
 42
0.0
 43
0.0
 44
0.0
 45
0.0
 46
0.0
 47
0.0
 48
0.0
 49
0.0
140
0.0
141
0.0
142
1.0
143
1.0
 70
688
 72
0
 73
0
 74
5
  7

 75
16
147
1.0
148
0.0
149
0.0
100
AcDbLayout
  1
Layout2
 70
1
 71
2
 10
0.0
 20
0.0
 11
12.0
 21
9.0
 12
0.0
 22
0.0
 32
0.0
 14
0.0
 24
0.0
 34
0.0
 15
0.0
 25
0.0
 35
0.0
146
0.0
 13
0.0
 23
0.0
 33
0.0
 16
1.0
 26
0.0
 36
0.0
 17
0.0
 27
1.0
 37
0.0
 76
0
330
23
  0
DICTIONARY
  5
1A3
100
AcDbDictionary
281
1
  3
DIMASSOC
350
1A5
  3
HIDETEXT
350
1A4
  0
DICTIONARYVAR
  5
1A4
100
DictionaryVariables
280
0
  1
2
  0
DICTIONARYVAR
  5
1A5
100
DictionaryVariables
280
0
  1
1
  0
ENDSEC
  0
EOF
